Oops, an error
Loading. Please wait.

Nunca Te Doblarás Tab

version 3
version 3

Whole song

Interactive

31 views 1 this week
no commentswrite comment
1 2 3 4 5
3 more votes to show rating
add to favorites
×
Save as Personal and add changes to this tab that will be seen only by you. Learn more ›
×
You can save this tab as Personal to edit and correct it or add notes. All changes will be seen only by you. Learn more »
save as personal
new!
launch autoscroll
font size
0
reset
how to read this tab
guitar tuner
Autoscroll
slow
fast
+/-
esc
set tempo
stop
Intro
guitrra 1 acompaña con los acordes F#m y A
guitarra 2 
B--------------------12-12-12--10-10-10--
G----------------------------------------
D--6-6-6-8-6-8-9/------------------------

B--------------------12-12-12--10-12--17//
G----------------------------------------
D--6-6-6-8-6-8-9/------------------------

Verso1 
guitarra 1

    F#m       A
E-----------------
B-------------2s--
G----2-------2--2-
D---4--4----2----- 
A--4----4--0------
E-2--------x------

guitarra 2

    F#m              A
E--14-14-14-14----12-12-12-12-
B--14-14-14-14----14-14-14-14-
G--14-14-14-14----14-14-14-14-

F#m          A            F#m             A
nunca nos fijamos que los buitres tambien lloran       
F#m          A          F#m         A
munca mos fijamos en la risa de los sapos

Puente
guitarra 1(Distorción)
   G  Bm  A  Em
E--3--2---0--0-
B--3--3---2--0-
G--4--4---2--0-
D--5--4---2--2-
A--5--2---0--2-
E--3--x---0--0-
guitarra 2
    G             B           A            Em
E-15-15-15-15--14-14-14-14--12-12-12-12--12-12-12-12
B-15-15-15-15--14-14-14-14--14-14-14-14--12-12-12-12
G-16-16-16-16--14-14-14-14--14-14-14-14--12-12-12-12
G                Bm            A
Que los osos se escapan de la Tierra 
          Em
en pleno invierno

      Esta parte se toca con la parte del verso
F#m           A           F#m             A
los delfines del desierto bailan en luna llena

Intro 

verso2(mismo acordes)
nunca nos fijamos que las luciernagas hablaban
en la soledad de la estratosfera brillaban 

Puente: Que los lobos se mueren cuando no pueden amar 

Que las mariposas resultaron ser fantasmas

CORO
guitarra1
  E    F#   G               
D---2s/--4s/--5s/-
A--2----4----5----
E-0----2----3-----
guitarra2

E--0-2~---2----2-------2/3/4-
B-0------2----2---2/3/4------
G-------2----4---------------

E         F#m         G
pero tu siempre estas ahi
F#m              E     
tan libre como el león
F#m              G 
tan firme como el sol
F#m          E     F#m G 
nunca te doblaras...
F#m           F
Nunca te dolbaraaaaaaaaaaas.

SOLO
D----------------------------------------------------------------------
A------------------------11p11p11p11p-12-11--11-12-11-9-11-12----------
E-0p0p0p00--2p2p2p2--3-2---------------------------------------5-4-2-2-

             2 veces
E----------------------------------------
B----14-13-14-15---14-13-14-13-----------
G--------------------------------14--13--
Suggest correction
Give kudos to tab author, rate the tab!
1 2 3 4 5
comments
print report bad tab
guest
Wanna post a correction for this tab? Suggest correction