Oops, an error
Loading. Please wait.

Nunca Te Doblarás Bass

version 1
version 1

Whole song

Interactive

26 views 1 this week
no commentswrite comment
1 2 3 4 5
3 more votes to show rating
add to favorites
×
Save as Personal and add changes to this tab that will be seen only by you. Learn more ›
×
You can save this tab as Personal to edit and correct it or add notes. All changes will be seen only by you. Learn more »
save as personal
new!
launch autoscroll
font size
0
reset
guitar tuner
Autoscroll
slow
fast
+/-
esc
set tempo
stop
ESTA ROLA ESTA MUY FACIL, SOLAMENTE ESCUCHALA Y
LE AGARRAS LA ONDA.

EL INTRO SE TOCA ASI:
G---------------------------------------
D---------------------------------------
A---------------------------------------
E--0-0-0-0-0-0-0-0-0-0-0-0-0-0-0-0------

Y CUANDO ENTRA LA LETRA SE TOCA LO SIGUIENTE
( TOCALO 4 VECES )
G---------------------------
D---------------------------
A---------------4-5-4-------
E--2--2-2--5--5-------5-----

SIGUE CON ESTO:
G-----------------------------------------
D-----------------------------------------
A-------------------------------2-3-2-----
E--3--3-3--3--3-3--3--3-3--3--3-------3---

DESPUES ESTO:
( TOCALO 2 VECES )
G---------------------------
D---------------------------
A---------------4-5-4-------
E--2--2-2--5--5-------5-----

EN ESTA PARTE DE LA ROLA SE TOCA LO MISMO
QUE EN EL INTRO
G--------------------------------------
D--------------------------------------
A--------------------------------------
E--0-0-0-0-0-0-0-0-0-0-0-0-0-0-0-0-----

Y SIGUE ASI:
( TOCA ESTO 4 VECES )
G---------------------------
D---------------------------
A---------------4-5-4-------
E--2--2-2--5--5-------5-----

DESPUES ESTO:
G----------------------------------------
D----------------------------------------
A-------------------------------2-3-2----
E--3--3-3--3--3-3--3--3-3--3--3-------3--

ESTO QUE SIGUE LO TOCAS 2 VECES
G--------------------------
D--------------------------
A---------------4-5-4------
E--2--2-2--5--5-------5----

AQUI ENTRA EL PRIMER CORO Y SE TOCA DE LA
SIGUIENTE MANERA( ESCUCHALO PARA QUE SEPAS
CUANDO SON LOS CAMBIOS )
TOCALO 4 VECES
G----------------------------------
D----------------------------------
A----------------------------------
E-0-0-0-0-2-2-2-2-3-3-3-3-2-2-2-2--

DESPUES DE LA CUARTA VEZ QUE TOCAS LO DEL CORO
TE QUEDAS EN FA HASTA QUE COMIENSE EL SOLO DE
LA LIRA.
G----------------------------
D----------------------------
A----------------------------
E--1-1-1-1-1-1-1-1-1-1-1-1---

Y DURANTE EL SOLO TOCAS ESTO :
( ESTO TAMBIEN TIENES QUE ESCUCHARLO PARA SABER
CUANDO SON LOS CAMBIOS )
G-------------------------------------------
D-------------------------------------------
A-----------------4-4-4-4-------------------
E-0-0-0-0-2-2-2-2---------5-5-5-5-1-1-1-1---

Y DESPUES DEL SOLO SE TOCA LO SIGUIENTE
HASTA QUE ACABA LA ROLA:
G----------------------------------
D----------------------------------
A----------------------------------
E-0-0-0-0-2-2-2-2-3-3-3-3-2-2-2-2--

ESTA ROLA SOLO TIENEN QUE ESCUCHARLA PARA QUE LE
AGARREN LA  QUE LES GUSTE.
CUALQUIER DUDA O COMENTARIO, A MI CORREO.
Suggest correction
Give kudos to tab author, rate the tab!
1 2 3 4 5
comments
print report bad tab
guest
Wanna post a correction for this tab? Suggest correction