Oops, an error
Loading. Please wait.

Nunca Te Doblarás Bass

version 2
version 2

Whole song

Interactive

14 views 1 this week
no commentswrite comment
1 2 3 4 5
3 more votes to show rating
add to favorites
×
Save as Personal and add changes to this tab that will be seen only by you. Learn more ›
×
You can save this tab as Personal to edit and correct it or add notes. All changes will be seen only by you. Learn more »
save as personal
new!
launch autoscroll
font size
0
reset
guitar tuner
Autoscroll
slow
fast
+/-
esc
set tempo
stop
ESPERO LES GUSTE ESTA ADAPTACION HECHA POR 
FIGO SAN LUIS DE LA PAZ, GUANAJUATO,MEXICO


intro( SE QUEDA TOCANDO EL TONO VARIAS VECES)
G:|--------------------------------------------------------------
D:|--- ------------------------------------------------------------
A:|-5-5-5-5-5-5-5-5-5-5----------------------------------------------------
E:|--------------------------------------------------------------

VERSOS
G:|--------------------------------------------------------------
D:|- ------------------------------------------------------------
A:|-------------------2-(BIS)------------------------------------------
E:|-2-2-0-2-4-5-5-4-5-----------------------------------------------------

VERSO
G:|--------------------------------------------------------------
D:|- ------------------------------------------------------------
A:|-------------------2-------------------3------------------------
E:|-2-2-0-2-4-5-5-4-5---3(VARIAS VECES)-5---5-2---------------------------------------------

CORO
G:|--------------------------------------------------------------
D:|- ------------------------------------------------------------
A:|--------------------------------------------------------------
E:|-0-0-0-2-2-0-2-5-3-3-3-2-2-2-0-(SE REPITE)----------------------------------------------

REQUINTO
G:|--------------------------------------------------------------
D:|- ------------------------------------------------------------
A:|-----------------4(6)---------------------------------------------
E:|-0-(8VECES)-2(6)------5(6)-1-1-1-1------------------------------------------------

ESO ES TODO.
SALUDOS A LA BANDA.
A YARET
Suggest correction
Give kudos to tab author, rate the tab!
1 2 3 4 5
comments
print report bad tab
guest
Wanna post a correction for this tab? Suggest correction