Oops, an error
Loading. Please wait.

Nunca Te Doblarás Bass Tab

version 3
version 3

Whole song

Interactive

16 views 1 this week
no commentswrite comment
1 2 3 4 5
3 more votes to show rating
add to favorites
launch autoscroll
font size
0
reset
guitar tuner
Autoscroll
slow
fast
+/-
esc
set tempo
stop
Help us to improve Ultimate-Guitar.com Take our survey!
×
Esta rola es muy buena y el bajo, no se diga solo te
recomiendo escucharla un par de veces para que agarres
bien los tiempos... 

 Intro... 
               Nunca nos fijamos..
  Em           F#m         A 
G|------------|-----------|-----------||
D|------------|-----------|--------4--||
A|77777777-7s2|-----------|----4h7---7||
E|------------|2----2-----|5--5-------||
              |......... 4 veces .....|

  G            G+7          G6          A    
G|------------|------------|-----------|-----------|
D|33--3-3-3--3|33--3-3-3--3|33--3-3-3--|--------4--|
A|------------|------------|-----------|----4h7---7|
E|------------|------------|-----------|5--5-------|

  F#m          A           E
G|------------|-----------|-----------------|
D|------------|--------4--|-----------------|
A|------------|----4h7---7|--------7777777s2|
E|2-----2-----|5--5-------|00000000---------|
 |....... 2 veces ........|

 CORO

 Pero tu...
  E     F#m         G     F#m         E
G|-----|-----------|-----|-----------|-----|
D|-----|--------2--|-----|--------2--|-----| Repite esta
A|-----|----0h4---4|-----|----0h4---4|-----| linea 4 veces
E|0--0-|2--2-------|3--3-|2--2-------|0--0-|

  Solo de guitarra...
  F          E           F#m      C#m      A
G|----------|-----------|--------|--------|--------|
D|----------|-----------|--------|--------|--------|
A|----------|---77777777|--------|44444444|--------|
E|X-X-X
Suggest correction
Give kudos to tab author, rate the tab!
1 2 3 4 5
comments
print report bad tab
guest
You may want to rate the tab now too:
select rating
Wanna post a correction for this tab? Suggest correction