Oops, an error
Loading. Please wait.

Somos Solo Sueños Bass

7 views 1 this week
no commentswrite comment
1 2 3 4 5
3 more votes to show rating
add to favorites
launch autoscroll
font size
0
reset
guitar tuner
×
Best way to learn
"Somos Solo Sueños"
Autoscroll
slow
fast
+/-
esc
set tempo
stop
  Abre tu capullo...        Asi...
  G                         G 
G|----4-5-4-----4----------|------------|------------|
D|5-7-------7-5---5--------|------------|------------|
A|-------------------------|------------|------------|
E|-------------------------|3--333--333-|3-1-133--333|
                  F         Am       Em        G
G|---------------|---------|--------|---------|------|
D|---------------|---------|--------|---------|------|
A|---------------|---------|-------5|7--7-7---|------|
E|333--31-13-333-|1?111-?3-|5--5-5--|-------7s|3--333|

G|--------------------------||
D|--------------------------||
A|--------------------------||
E|333-1-133--333--333--3-1-1||

  Deja que mis parpados...
  Em     C 
G|------|------||
D|2-----|------||    Este riff repite cuatro veces
A|--2---|3-----||
E|----0-|--3-0-||

--- La siguiente estrofa y coro repiten igual...

--- El solo de guitarra y la  estrofa ? solo somos sueños ?

  G            F            G            F     
G|------------|------------|------------|------------|
D|------------|------------|------------|------------|
A|------------|------------|------------|------------|
E|3-333--333-3|1-----1-----|3-333--333-3|1-----1-----|

  Asi se va hasta el final...

Dudas preguntas o comentarios escribe a:
laburka@
Suggest correction
Give kudos to tab author, rate the tab!
1 2 3 4 5
comments
print report bad tab
guest
You may want to rate the tab now too:
select rating
Wanna post a correction for this tab? Suggest correction