Oops, an error
Loading. Please wait.

Somos Solo Sueños Tab

31 views 1 this week
no commentswrite comment
1 2 3 4 5
3 more votes to show rating
add to favorites
×
Save as Personal and add changes to this tab that will be seen only by you. Learn more ›
×
You can save this tab as Personal to edit and correct it or add notes. All changes will be seen only by you. Learn more »
save as personal
new!
launch autoscroll
font size
0
reset
how to read this tab
guitar tuner
Autoscroll
slow
fast
+/-
esc
set tempo
stop
LA CANCION LA PUEDEN LLEVAR CON EL PUNTEO 
O SI GUSTAN CON ACORDES QUE SERÍAN F Y G

INTRO.
e |-----------------|-----------------
b |-----------------|-------------0---
g |-----------0-----|-----------0---0-
D |-------0-1---1-0-|-------0-1-------    X 2
A |---0-2-----------|---0-2-----------
E |-3---------------|-3---------------


e |-----------------|-----------------
b |-----------------|-------------0---
g |-----------0-----|-----------0---0-
D |-------0-1---1-0-|-------0-1-------    X 2
A |---0-2-----------|---0-2-----------
E |-3---------------|-3---------------
   Abre tu capullo en la oscuridad [si]      G F G 
G         F           Am          E
Pon a remojar la realidad y hazme soñar 

TAMBIEN LO PUEDEN HACER CON EL PUNTEO
G                      F     G
disuelve tu semilla en mi paladar
Em           C                  Em                 C
deja que mis párpados guarde la luz que refleja la luna
D |-2-4-5-4-2-----
A |---------------
E |---------------

Em              C                     Em                  C
  Para que mis sueños se extiendan también a lo largo del día.

G F G F G

G                 F      G
El amor es frágil como cristal
            F           Am             E
Es esa criatura que tendrás que alimentar
G              F     G
Dándole motivos para soñar.

Em           C                  Em                 C
deja que mis párpados guarde la luz que refleja la luna
D |-2-4-5-4-2-----
A |---------------
E |---------------

Em              C                     Em                  C
  Para que mis sueños se extiendan también a lo largo del día.

SOLO

e |-----------------7---7-----7-7----10-8-7---
b |----------7-8-10-------10------10----------
g |------7-9----------8-----------------------
D |-9-10--------------------------------------
A |-------------------------------------------
E |-------------------------------------------


e |-7h8h7-7h8h7-7-8--------------------------------5-7-10-7--
b |-----------------10-8-7---------------------5/7-----------
g |------------------------9-7/9-7-7--5-7-8-7----------------
D |----------------------------------------------------------
A |----------------------------------------------------------
E |----------------------------------------------------------


G           F      G           F
Sólo somos sueños  Sólo somos sueños  
G           F      G           F
Sólo somos sueños  Sólo somos sueños  
G           F      G           F
Sólo somos sueños  Sólo somos sueños  

DUDAS Y/O COMENTARIOS POR FAVOR ESCRIBIR A alfa_omega22@
GRACIAS.
Suggest correction
Give kudos to tab author, rate the tab!
1 2 3 4 5
comments
print report bad tab
guest
Wanna post a correction for this tab? Suggest correction