Oops, an error
Loading. Please wait.

Canción Del Jangadero Tab

12 views 1 this week
no commentswrite comment
1 2 3 4 5
3 more votes to show rating
add to favorites
launch autoscroll
font size
0
reset
how to read this tab
guitar tuner
Autoscroll
slow
fast
+/-
esc
set tempo
stop
Help us to improve Ultimate-Guitar.com Take our survey!
×
introduccion:

1|---------------------------------------------0---0-2-1-2---5---3--2--0--0
2|--------------------------------0---0--3-2-3---3-------------------------
3|2--3-4-4--2-2-----------------0---0---3----------------------6--4--2--0--
4|-------------5-5--4-4--2--1--2---4---------------------------------------
5|-------------------------------------------------------------------------
6|-------------------------------------------------------------------------


1|---------------------------------------------0---0-2-1-2---5---3--2--0--0
2|--------------------------------0---0--3-2-3---3-------------------------
3|2--3-4-4--2-2-----------------0---0---3----------------------6--4--2--0--
4|-------------5-5--4-4--2--1--2---4---------------------------------------
5|-------------------------------------------------------------------------
6|-------------------------------------------------------------------------


RE                           SOL
RIO ABAJO VOY LLEVANDO LA JANGADA
LA7                      RE
RIO ABAJO POR EL ALTO PARANA
SI7                           MIm
ES EL PESO DE LAS SOMBRAS DERRUMBADAS
LA7                         RE
QUE BUSCANDO EL HORIZONTE BAJARÁ.


RIO ABAJO, RIO ABAJO, RIO ABAJO

A FLOR DE AGUA VOY CANTANDO ESTA CANCION

ES EL SUEÑO DE LA VIDA Y EL TRABAJO

SE ME VUELVE CAMALOTE EL CORAZON.


ESTRIBILLO:
   RE            FA
JANGADERO... JANGADERO...
   LA7                    RE
MI DESTINO POR EL RIO ES DERIVAR
 SI7                       MIm
DESDE EL FONDO DEL OBRAJE MADERERO
 LA7                        RE
CON EL ANHELO DEL AGUA QUE SE VA.


(INTRODUCCION)


PADRE RIO TUS ESCAMAS DE ORO VIVO

SON EL SUEÑO QUE NOS LLEVA MAS ALLA

VAMOS TRAS EL HORIZONTE FUJITIVO

Y LA SANGRE CON EL AGUA QUE SE VA


BANDA, BANDA... SOL Y LUNA... CIELO Y AGUA

ESPEJISMO QUE NO ACABA DE PASAR

PIEL DE BARRO FABULOSA LAMPALAGUA

ME DEVORA LA PASION DE NAVEGAR.


(ESTRIBILLO)
Suggest correction
Give kudos to tab author, rate the tab!
1 2 3 4 5
comments
print report bad tab
guest
You may want to rate the tab now too:
select rating
Wanna post a correction for this tab? Suggest correction