Oops, an error
Loading. Please wait.

Oh Cochabamba Querida Tab

80 views 1 this week
no commentswrite comment
1 2 3 4 5
3 more votes to show rating
add to favorites
launch autoscroll
font size
0
reset
how to read this tab
guitar tuner
×
Best way to learn
"Oh Cochabamba Querida"
Autoscroll
slow
fast
+/-
esc
set tempo
stop
Esto es para todos los COCHABAMBINOS


E|-0-5-4-5-3-2-3-1-|-5-8-7-5-3-2-5-0-|-0-2-4-5-0-------|
B|-----------------|-----------------|-----------2-3-0-|
G|-----------------|-----------------|-----------------|
D|-----------------|-----------------|-----------------|
A|-----------------|-----------------|-----------------|
E|-----------------|-----------------|-----------------|

E|-------0-5-0-----|-0-5-4-5-3-2-3-1-|-5-8-7-5-3-2-5-0-|
B|-0-2-3-------3-1-|-----------------|-----------------|
G|-----------------|-----------------|-----------------|
D|-----------------|-----------------|-----------------|
A|-----------------|-----------------|-----------------|
E|-----------------|-----------------|-----------------|

E|-0-2-4-5-0-------|-------0-5-0-----|
B|-----------2-3-0-|0-2-3-------3-1--|
G|-----------------|-----------------|
D|-----------------|-----------------|
A|-----------------|-----------------|
E|-----------------|-----------------|

E|-0-0-0-0-3-2-3-1-|-5-8-7-5-3-2-5-0-|
B|-----------------|-----------------|
G|-----------------|-----------------|
D|-----------------|-----------------|
A|-----------------|-----------------|
E|-----------------|-----------------|
E|-0-2-4-5-0-------------0-5-0-----|
B|-----------2-3-0-0-2-3-------3-1-|
G|---------------------------------|
D|---------------------------------|
A|---------------------------------|
E|---------------------------------|

E|-0-0-0-0-3-2-3-1-|-5-8-7-5-3-2-5-0-|
B|-----------------|-----------------|
G|-----------------|-----------------|
D|-----------------|-----------------|
A|-----------------|-----------------|
E|-----------------|-----------------|

E|-0-2-4-5-0-------------0-5-0-----|
B|-----------2-3-0-0-2-3-------3-1-|
G|---------------------------------|
D|---------------------------------|
A|---------------------------------|
E|---------------------------------|
E|-0-0-0-0---0-4-0-0-0-0---0-5-|
B|---------4-------------4-----|
G|-----------------------------|
D|-----------------------------|
A|-----------------------------|
E|-----------------------------|

E|---1-0-1-------0---------------|
B|-3-------3-0-1---0-3-2-3-0-----|
G|---------------------------1-2-|
D|-------------------------------|
A|-------------------------------|
E|-------------------------------|

E|----------------------------|---1-0-1-------0---------0-2-4-5|
B|----------------------------|-3-------3-0-1---0-3-2-3--------|
G|------------1-------------2-|--------------------------------|
D|2-2-2-2-1-2---2-2-2-2-1-2---|--------------------------------|
A|----------------------------|--------------------------------|
E|----------------------------|--------------------------------|


Rasgueo

x | x x
| | x |
| | x |
| | x |
| x x |

LAm            LA7  REm
Oh, Cochabamba querida
          SOL7        DO 
ciudad de mágico encanto
                   MI7
te doy entera mi vida
                      LAm
en este mi humilde canto


LAm            LA7  REm
Hermosa tierra valluna
          SOL7      DO 
de verdor inigualable
                      MI7
tienen tus noches de luna
                     LAm
un encanto incomparable


LAm           LA7    REm
Y si de nuevo algún día
        SOL7          DO 
me alejo de Ti Oh Tunari
                      MI7
no te olvides tierra mía
                       LAm
de este humilde taquirari


LAm             MI7
El rio rocha turbión
                     LAm
pinta tu hermoso verdor
REm                   LAm
pueblo que eres de Bolivia
MI7             LAm
su vida y su corazón


Cualquier duda a mi correo electrónico kekos@
Suggest correction
Give kudos to tab author, rate the tab!
1 2 3 4 5
comments
print report bad tab
guest
You may want to rate the tab now too:
select rating
Wanna post a correction for this tab? Suggest correction