Oops, an error
Loading. Please wait.

Alabe Al Señor Bass

28 views 3 this week
no commentswrite comment
1 2 3 4 5
3 more votes to show rating
add to favorites
launch autoscroll
font size
0
reset
guitar tuner
×
Best way to learn
"Alabe Al Señor"
Autoscroll
slow
fast
+/-
esc
set tempo
stop
Afinación: G D A E B


   Intro:
G |------------------------------------------------------------------
D |------------------------------------------------------------------
A |------------------------5------7---------------5-----8s10s8-------
E |---3?-5--6?-8s10-8-6---3-3--5---5--6--8-8-6---3-3--5-------6------
B |------------------------------------------------------------------

                Verso 1
G |------------|-----------------------------------------------------
D |------------|------3----------------------------------3-3---------
A |------------|------------------7----------5---------3---------3---
E |--5-6-8-8-8-|-1------1?---3s5----5----3---------1---------------1-
B |------------|-----------------------------------------------------


G |---------------------------------------|
D |------------------7--------------------|
A |------5--------7--------------3--------|
E |-3-----3---5----------8---------3------|
B |----------------------------------1-1--|


Verso 2
G |-------------------------------------------------------------------
D |-----3---------------------------------3-3-------------------------
A |------------------7----------5-------3------3--------5---------7---
E |1------1----3s5-----5----3-----3---1----------1--3-----3---5-----3-
B |-------------------------------------------------------------------

                   Coros
G |---------------|---------------------------------------------------
D |---------------|---------------7-----------------5--------------7--
A |---------------|-----7-----5----5-5------5---3----3-------7--5---5-
E |--6----8-8-8-6-|-5----5--------------3----3---------6-5----5-------
B |---------------|---------------------------------------------------


G |-------------------------------------------------------------------
D |-------------------------------------------------------------------
A |-----5--------7---------------------5---------7--------------------
E |-3----3---5----5--6-8s10-8--6--3-----3---5-----5--6-8s10?8--6------
B |-------------------------------------------------------------------


G |------------------------------------------------------------------
D |------------------------------------------------------------------
A |-----5-------8s10s8-----------------------5--------7--------------
E |-3----3---5---------6---5-6--8-8-8----3----3---5----5--6?8s10-8--6
B |------------------------------------------------------------------


G |-------------------|
D |-------------------|
A |-----5------4------|
E |-3----3--5----6--6-|
B |-------------------|

Desde aquí todo se repite igual que como esta en estas tablaturas.

A continuación les pondre los adornos en el tiempo exacto y los puentes:

   (1:27)            (2:12) Puente
G |-----------------|--------------------------------------5-5--------
D |----10-----------|---6-------------6-------------6---------5-5-----
A |------10---------|------6-6-----------6-6-----------6----------3--1
E |-8------10?-8--8-|4-------------4-------------4-------3------------
B |-----------------|-------------------------------------------------

G |------------------------------------------------|
D |------------------------------------------------|
A |--------5---3--------3-3--1-1--3--0------5-5----|
E |--5--------------3------------------------------|
B |------------------------------------------------|

  (3:06) Final
G |--------------------------------------------------------|
D |--------------------------------------------------------|
A |-----5--------7---------------------5--------4----------|
E |-3----3---5----5--6-8s10-8--6--3-----3---5------1-1-1---|
B |--------------------------------------------------------|
Suggest correction
Give kudos to tab author, rate the tab!
1 2 3 4 5
comments
print report bad tab
guest
You may want to rate the tab now too:
select rating
Wanna post a correction for this tab? Suggest correction