Oops, an error
Loading. Please wait.

Aquí Estoy Tab

51 views 1 this week
no commentswrite comment
1 2 3 4 5
3 more votes to show rating
add to favorites
launch autoscroll
font size
0
reset
how to read this tab
guitar tuner
×
Best way to learn
"Aquí Estoy"
Autoscroll
slow
fast
+/-
esc
set tempo
stop
BUENO PUES AQUI LES TENGO LA CANCION DE AQUI  CANCION
 LA SAQUE CON MI HERMANO PERO ESTO SERIA EN LA GUITARRA
NO SE SI LES GUSTE PERO ES ALGO ASI COMO SUENA EL  PRINCIPIO
SALUDOS A MI FAMILIA!!!
ESTO VA ASI

e-----------------------------------------------]
B-----------------------------------------------]
G-----------------------------------------------]
D-----------------------2--0---------2--0-------]
A----0-2-4--7--5--4-2-0--------4-2-0-------4-2--]
E-----------------------------------------------]

INMEDIATAMENTE SE TOCA EL ACORDE (MI) Y (RE)

Y ESO SERIA EN EL PRINCIPIO
Y YA SIGUE LO NORMAL
EL FINAL SERIA IGUAL QUE ARRIBA


A     E  F#m             C#m       E
Aqui estoy  te ofrezco todo lo que soy.
  A     E  F#m             C#m       E
Aqui estoy, un sacrificio quiero ser.
D         E     D/F#     E
Toma mi ser, mi vida entrego a Ti.

       A    D      E
Porque Tu eres mi Dios,
      A       D/F#  E
eres digno de adoración,
      A          D     E      D  E
una ofrenda de amor seré para Ti


e-----------------------------------------------]
B-----------------------------------------------]
G-----------------------------------------------]
D-----------------------2--0---------2--0-------]
A----0-2-4--7--5--4-2-0--------4-2-0-------4-2--]
E-----------------------------------------------]

IGUAL SE TOCA EL ACORDE (MI) Y (RE)


ESO ES EL FINAL GRAX!!! Y NOS VEMOS
DUDAS LES DEJO MI CORREO
nene_pxndx2006@
saludos a mi familia!!!!!!!!!bye
Suggest correction
Give kudos to tab author, rate the tab!
1 2 3 4 5
comments
print report bad tab
guest
You may want to rate the tab now too:
select rating
Wanna post a correction for this tab? Suggest correction