Oops, an error
Loading. Please wait.

Cantos De Júbilo Bass

108 views 1 this week
no commentswrite comment
1 2 3 4 5
3 more votes to show rating
add to favorites
launch autoscroll
font size
0
reset
guitar tuner
Autoscroll
slow
fast
+/-
esc
set tempo
stop
INTRO: ÓRGANO 4  TIEMPO:

G:----99---------7----- es todo eslap
D:------------5--------
A:-7------7------------
E:--------------------


G:-----9-9--7-9------
D:--------------------
A:-7------------------
E:--------------------

G:----99---------7-----
D:------------5--------
A:-7------7------------
E:---------------------

G:---------9 9 8 9-----
D:---------------------
A:--7------------------
E:---------------------

COMIENZO DE CANCIÓN:

GOLPE DE ESPADA:
G:-------9-9---------------7-----
D:-------------------5--------
A:--7----------7--------------
E:---------------------------


G:--------9-9-9-7--------
D:-----------------------
A:---7------------------
E:----------------------


G:-5-5------5-7----------
D:------7----------------
A:----------------5------
E:----------------------


G:---9-9------------9------------
D:---------------------------
A:-7------9-----7---------------
E:---------------------------

CORO:
Y CADA GOLPE?
G:---------------------------------
D:---------------------------------
A:--------2-5-3-2---5--5------------
E:--3-3--------------------9-7-5----

G:----------------------------------
D:----------------------------------
A:--------2-5-3-2---5--5---3-5------
E:--3-3-----------------------------

SERA CON CANTOS DE JUBILO??..
G:-------5-5-----------------9-9---------------
D:----------------------------------------------
A:----3------3-----5------7-------7------5-7---
E:--------------------------------------------

SOLO DE BAJO :


G:-------55---------------7-7------------9-9---------------
D:---------------------------------------------------------
A:--3--------3-------5----------5-----7-------7----5-7-----
E:---------------------------------------------------------

FINAL:

G:-------55---------------7-7------------------44----------------9---
D:---------------------------------------------------------------9---
A:--3--------3-------5----------5--------2----------2-----7--------
E:-------------------------------------------------------------------

bueno que dios les bendiga y les sea de
mucha bendicion la canción todo es
eslap nada de dedos.
Suggest correction
Give kudos to tab author, rate the tab!
1 2 3 4 5
comments
print report bad tab
guest
Wanna post a correction for this tab? Suggest correction