Oops, an error
Loading. Please wait.

Grande Eres Tú Tab

39 views 1 this week
no commentswrite comment
1 2 3 4 5
3 more votes to show rating
add to favorites
launch autoscroll
font size
0
reset
how to read this tab
guitar tuner
×
Best way to learn
"Grande Eres Tú"
Autoscroll
slow
fast
+/-
esc
set tempo
stop
Bueno antes que todo debo decirles que en todo el momento que toca el bajo este
esta golpendo y en ningun momento he escuchado que haga un slapping ok?

:Intro:

G] :------------:--------------:---------------:---------------:
D] :------------:---------5-7--:---------------:---------7-5---:
A] :------5-7---:----5-7-------:-7------5-7----:----5-7--------:
E] :-0-0------0-:--0-----------:----0-0------0-:---------------:
B] :------------:--------------:---------------:---------------:

G] :------------:--------------:---------------:---------------:
D] :------------:---------5-7--:---------------:--------7-7-5--:
A] :------5-7---:----5-7-------:-7------5-7----:-----5---------:
E] :-0-0------0-:--0-----------:-----0------0--:---------------:
B] :------------:--------------:---------------:---------------:


:Estrofa:

Del poder de tus hechos...
G] :------------:--------------:---------------:---------------:
D] :------------:---------5-7--:---------------:---------7-5---:
A] :------5-7---:----5-7-------:-7------5-7----:----5-7--------:
E] :-0-0------0-:--0-----------:----0-0------0-:---------------:
B] :------------:--------------:---------------:---------------:

Y mis labios publicaran...
G] :------------:--------------:---------------:---------------:
D] :------------:--------------:---------------:---------------:
A] :-----7---5--:--------------:-----------2---:---------2-0-2-:
E] :-5-5---5----:--------------:--3-3--5-3-----:---------------:
B] :------------:---3-3-5--3---:---------------:---------------:

:Coro:

Por que grande eres tu...

G] :---------------:--------------:---------------:---------------:
D] :---------------:--------------:---------------:---------------:
A] :-7---7---7-6-5-:-3-3-----3-5--:-----------1---:-3-3---3-5-----:
E] :---0-----------:-------5------:-5-5--5-5------:-----5---------:
B] :---------------:--------------:---------------:------------3--:

Grande eres tu y digno...

G] :---------------:--------------:---------------:-----7---------:
D] :---------------:--------------:-----3---------:---------------:
A] :-----7---7-6-5-:-3-3-----3-5--:-3-3---3-3-----:-2-------------:
E] :---0-----------:-------5------:-----------5---:---------------:
B] :---------------:--------------:---------------:---------------:

:Estrofa:
:Coro:

:Solo de Piano: ( s = slide )

G] :---------------:--------------:---------------:---------------:
D] :---------------:--------------:---------------:---------------:
A] :---------------:--------------:---------------:---------------:
E] :---------------:--------------:---------------:-7-7---5-7s----:
B] :-5s------------:-5-5----------:-5-------------:---------------:

G] :------------:--------------:---------------:---------------:
D] :------------:--------------:---------------:---------------:
A] :------5-7---:-------5-7----:------5-7------:--------5-7----:
E] :-0-0------0-:--0-0---------:-0-0---------0-:-0-0-----------:
B] :------------:--------------:---------------:---------------:

:Coro:

:Final (bass and brass):

G] :------------:
D] :------------:
A] :------5-7---:
E] :--0---------:
B] :------------:

ok cualquier consulta solamente escribanme  a mi correo ok!
chau!!!!!!!!!
QDTBM
Suggest correction
Give kudos to tab author, rate the tab!
1 2 3 4 5
comments
print report bad tab
guest
You may want to rate the tab now too:
select rating
Wanna post a correction for this tab? Suggest correction