Oops, an error
Loading. Please wait.

Mira Niñita Tab

version 1
version 1

Whole song

703 views 1 this week
no commentswrite comment
1 2 3 4 5
3 more votes to show rating
add to favorites
launch autoscroll
font size
0
reset
how to read this tab
guitar tuner
×
Best way to learn
"Mira Niñita"
Autoscroll
slow
fast
+/-
esc
set tempo
stop
Hola aqui les va el solo de Mira Niñita, disculpen por no haberselos mandado 
antes, pero es que estoy estudiando y no tengo mucho tiempo.
ojala que les guste.


1/--------------------------------------------------------------------------
2/--13~---12-12^13-13-13-13-12^13^12-------------12~------12-13----12-13-15-
3/-----14----------------------------14-12~12-14----12~14-------14----------
4/--------------------------------------------------------------------------
5/--------------------------------------------------------------------------
6/--------------------------------------------------------------------------

1/--12^13-13-13-13~12^13^12^13^12-------------12-12^13^12^13^12----------
2/--------------------------------15-13~13-15-------------------15~15~15~
3/-----------------------------------------------------------------------
4/-----------------------------------------------------------------------
5/-----------------------------------------------------------------------
6/-----------------------------------------------------------------------

1/--------12-13-12^13^12-------     Este trill se repite 4 veces
2/--13-15----------------15-13-
3/-----------------------------
4/-----------------------------
5/-----------------------------
6/-----------------------------

1/--------12-12^13^12^13^12----------------12-12^13-13~13~12^13^12----12-13^15-15~15~16~17~17~
2/--13-15-------------------15~15~15~13~15-------------------------15-------------------------
3/--------------------------------------------------------------------------------------------
4/--------------------------------------------------------------------------------------------
5/--------------------------------------------------------------------------------------------
6/--------------------------------------------------------------------------------------------

1/----------------------------------------------------------------------
2/-----12-12^13~13-12-------12-12^13-13-12^13^12----------12-13~12~/////
3/--14----------------14-14----------------------14-12~14---------------
4/----------------------------------------------------------------------
5/----------------------------------------------------------------------
6/----------------------------------------------------------------------
Suggest correction
Give kudos to tab author, rate the tab!
1 2 3 4 5
comments
print report bad tab
guest
You may want to rate the tab now too:
select rating
Wanna post a correction for this tab? Suggest correction