Oops, an error
Loading. Please wait.

Mira Niñita Bass Tab

259 views 3 this week
no commentswrite comment
1 2 3 4 5
2 more votes to show rating
add to favorites
launch autoscroll
font size
0
reset
guitar tuner
Autoscroll
slow
fast
+/-
esc
set tempo
stop
Help us to improve Ultimate-Guitar.com Take our survey!
×
Este tab es muy facil,demas que esta correcto porque con
la cancion suena  les va¡¡¡¡¡

(el bajo entra cuado empieza el rasgeo del charango y la guitarra)


   FAM                       DOM           SOLM

G----2-5----2-5---2-5-------------------------------
D--3------3-----3------3-2------2-5--------------5--
A--------------------------5--3-----3-2------2-5----   X VARIAS VECES
E---------------------------------------5--3--------

(Eso es casi toda la cancion,solo el final cambia)

G----2-5--------------------------------------------                  
D--3-----3-2-------2-5------------------------------
A-------------5--3------3-2-------2--5-----2h5-5----
E----------------------------5--3--------3----------


eso es todo y ¡¡¡¡¡VivAN lOs cHOco pAndAS!!!!!!!!!!!
Suggest correction
Give kudos to tab author, rate the tab!
1 2 3 4 5
comments
print report bad tab
guest
You may want to rate the tab now too:
select rating
Wanna post a correction for this tab? Suggest correction