Oops, an error
Loading. Please wait.

No Volverás Chords

version 2
version 2

Whole song

9 views 1 this week
no commentswrite comment
1 2 3 4 5
3 more votes to show rating
add to favorites
launch autoscroll
font size
0
reset
transpose
0
reset
display chords
guitar tuner
×
Best way to learn
"No Volverás"
Autoscroll
slow
fast
+/-
esc
set tempo
stop
e|-5--5-6-5-3--6-5-6-5-6-6--5--5-6-5-3--6--
B|-6--6-8-6-5--8-6-8-6-8-8--6--6-8-6-5--8--
G|-----------------------------------------
D|-----------------------------------------
A|-----------------------------------------
E|-----------------------------------------

Dm - C
Dm                    C
Se que esta noche te vas
    Dm                            C
tus ojos tan tristes me dicen que no volverás
                    A#                C
ya no hay marcha atrás, nada será igual...

    Dm               C
Bailemos por última vez
    Dm              C
bailemos como lo fue ayer
           A#                  C
esta despedida me sienta tan mal

 * los acordes siguen igual en esta sección

Dm                    C
Se que esta noche te vas
    Dm                            C
tus ojos tan tristes me dicen que no volverás
                    A#                C
ya no hay marcha atrás, nada será igual
                    A#                C
ya no hay marcha atrás, nada será igual...

    Dm               C
Bailemos por última vez
    Dm              C
bailemos como lo fue ayer
           A#                  C
esta despedida me sienta tan mal
           A#                  C
esta despedida me sienta tan mal

e|-5--5-6-5-3--6-5-6-5-6-6--5--5-6-5-3--6-5-6-5-6-6--
B|-6--6-8-6-5--8-6-8-6-8-8--6--6-8-6-5--8-6-8-6-8-8--
G|---------------------------------------------------
D|---------------------------------------------------
A|---------------------------------------------------
E|---------------------------------------------------

Dm        C         Dm        C
Oh, oh oh oh, oh oh oh, oh oh oh
Suggest correction
Give kudos to tab author, rate the tab!
1 2 3 4 5
comments
print report bad tab
guest
You may want to rate the tab now too:
select rating
Wanna post a correction for this tab? Suggest correction