Oops, an error
Loading. Please wait.

Se Parece A Tí Tab

35 views 1 this week
no commentswrite comment
1 2 3 4 5
3 more votes to show rating
add to favorites
launch autoscroll
font size
0
reset
how to read this tab
guitar tuner
×
Best way to learn
"Se Parece A Tí"
Autoscroll
slow
fast
+/-
esc
set tempo
stop
PUNTEO DE SE PARECE MAS A TI O LA QUE CANTA LA 12 DE BOCA JUNIORS!!


PARTE 1
1e -----------------------------------------/------------------------------
2B -----------5-----------------------------/----------5-------------------
3G -5-5-5--7----5--7-7----------------------/-5-5-5--7--5---7/-------------
4D -----------------------------------------/------------------------------
5A -----------------------------------------/------------------------------
6E -----------------------------------------/------------------------------


PARTE 2

1e -----------------------------------------
2B -----------------------------------------
3G -5-5-5-5-5---5-5-5-5----4-5-7-------------
4D -----------------------------------------
5A -----------------------------------------
6E -----------------------------------------


PARTE 3
1e -----------------------------------------
2B -------5----------8-6--------------------
3G -5-5-7--7-7-7-7-7-----7-5----------------2 VECES
4D -----------------------------------------
5A -----------------------------------------
6E -----------------------------------------


ULTIMA
1e -----------------------------------------
2B -----------------------------------------
3G -5-5-5-5-5---5-5-5-5----4-5-7------5-5-5-5-5-5-4-5/
4D -----------------------------------------
5A -----------------------------------------
6E -----------------------------------------
Suggest correction
Give kudos to tab author, rate the tab!
1 2 3 4 5
comments
print report bad tab
guest
You may want to rate the tab now too:
select rating
Wanna post a correction for this tab? Suggest correction