Oops, an error
Loading. Please wait.

Pero Nunca Lo Sabrás Chords

version 2
version 2

Whole song

by Jan
5 views 1 this week
no commentswrite comment
1 2 3 4 5
3 more votes to show rating
add to favorites
launch autoscroll
font size
0
reset
transpose
0
reset
simplify chords
display chords
guitar tuner
Autoscroll
slow
fast
+/-
esc
set tempo
stop
Help us to improve Ultimate-Guitar.com Take our survey!
×
Tono:B

INTRO:
C#m7        B          C#m7     B
e-4-7-6-7--2------------4-4---4-2-------
B-5--------4------------5---7---4-------
G-4--------4---4--------4-------4-4-4-6-
D-6--------4-4----------6-------4-------
A-4--------2------------4-------2-------
E-4--------2------------4-------2-------

C#m7        B               C#m7    B
e-4-7-6-7--2----------------4-4---4-2-------
B-5--------4----------------5---7---4-------
G-4--------4---4------------4-------4-4-4-6-
D-6--------4-4--------------6-------4-------
A-4--------2------6-7-6-4---4-------2-------
E-4--------2--------------7-4-------2-------


B           D#m      G#m
  Siempre fuiste para mi
B           D#m      G#m
  un deseo sin cumplir
          E      F#
esa clase de mujer
                  E         F#
que no podras dejar de querer
                 E      D#m       G#m
que tiene sobre ti     todo el poder
B         D#m         G#m
  he pensado en suplicar
B        D#m        G#m
  un sorbo de tu intimidad
            E      F#
he soñado con beber
                E      F#
en las fuentes de tu piel
             E      D#m      G#m
y ver amanecer    alli despues


            E     F#
pero nunca lo sabras
             B    G#m
nunca lo sospecharas
               E     F#
me tendras en un rincon
            B     G#m
disimulando mi dolor
                 E
y tu estaras con el
F#           G#m
besandote con el
              E
y no adivinaras
        F#
este amor jamas

  C#m7     B                C#m7    B
e-4-7-6-7--2----------------4-4---4-2-------
B-5--------4----------------5---7---4-------
G-4--------4---4------------4-------4-4-4-6-
D-6--------4-4--------------6-------4-------
A-4--------2------6-7-6-4---4-------2-------
E-4--------2--------------7-4-------2-------

B           D#m    G#m    B      D#m      G#m
  es inutil repetir,     que me muero por ti
                 E         F#
y en el silencio de mi  voz
                E              F#
te grito con el corazon
               E  D#m              G#m
nadie te amara   igual que yo

            E     F#
pero nunca lo sabras
             B    G#m
nunca lo sospecharas
               E     F#
me tendras en un rincon
            B     G#m
disimulando mi dolor
          E
y tu estaras con el
F#             G#m
besandote con el
               E
y no adivinaras
        F#          B
este amor jamas

            E     F#
pero nunca lo sabras
             B    G#m
nunca lo sospecharas
               E     F#
me tendras en un rincon
            B     G#m
disimulando mi dolor
        E
y tu estaras con el
F#             G#m
besandote con el
                  E
y no adivinaras
        F#          B
este amor jamas


C#m7        B               C#m7    B
e-4-7-6-7--2----------------4-4---4-2-------
B-5--------4----------------5---7---4-------
G-4--------4---4------------4-------4-------
D-6--------4-4--------------6-------4-------
A-4--------2------6-7-6-4---4-------2-------
E-4--------2--------------7-4-------2-------
Suggest correction
Give kudos to tab author, rate the tab!
1 2 3 4 5
comments
print report bad tab
guest
You may want to rate the tab now too:
select rating
Wanna post a correction for this tab? Suggest correction