Oops, an error
Loading. Please wait.

Pero Nunca Lo Sabrás Chords

version 3
version 3

Whole song

by Jan
22 views 1 this week
no commentswrite comment
1 2 3 4 5
3 more votes to show rating
add to favorites
launch autoscroll
font size
0
reset
transpose
0
reset
simplify chords
display chords
guitar tuner
Autoscroll
slow
fast
+/-
esc
set tempo
stop
Help us to improve Ultimate-Guitar.com Take our survey!
×
Esta cancion esta muy bonita y decidi poner las notas en el Atame,
por que se la voy a dedicar a una niña muy especial para mi su nombre
es Lesli G. y solo le quiero decir que es una chava super y que la quiero
mas que a nada en este mundo y como te lo he dicho antes TODO LO QUE HAGO
LO HAGO POR TI.
E|----------------------------------------|
B|9-------12---11--12---------------------|
G|---8-----------------8------------------|
D|----------------------------------------| 
A|----------------------------------------|
E|----------------------------------------|

E|----------------------------------------|
B|5-----9---7---9-------------------------|
G|---4-----------------4------------------|
D|----------------------------------------| 
A|----------------------------------------|
E|----------------------------------------|


E|----------------------------------------|
B|1---1---3---4---------------------------|
G|----------------------------------------|
D|----------------------------------------| 
A|----------------------------------------|
E|----------------------------------------|

Ahora va La canción 

B                   G#m
Siempre fuiste para mi 
B                   G#m
un deseo sin cumplir
           E    F#7
esa clase de mujer 
                E
que no podras dejar 
      F#7                  E
de querer, que tiene sobre ti
F#7      B
todo el poder


B                   G#m
He pensado en suplicar
B                   G#m
un sorbo de tu intimidad
          E    F#7
he soñado con beber 
               E    F#7
de las fuentes de tu piel
            E
y ver amanecer, 
F#7      B
alli despues


            E    F#7
Pero nunca lo sabras 
             B
nunca lo sospecharas 
               E    F#7
me tendras en un rincon
             B
disimulando mi dolor
                 E
y tu estaras con el
              B
besandote con el
            E          F#7    B
y no adivinaras, este amor jamas


B              G#m
Es inutil repetir
B                 G#m
que me muero por ti
              E         F#7
y en el silencio de mi voz 
                 E    F#7
te grito con el coraaazon 
           E    
nadie te amara 
F#7       G#m
igual que yo


            E    F#7
Pero nunca lo sabras 
             B
nunca lo sospecharas 
               E    F#7
me tendras en un rincon
             B
disimulando mi dolor
                 E
y tu estaras con el
              B
besandote con el
            E          F#7    B
y no adivinaras, este amor jamas
Suggest correction
Give kudos to tab author, rate the tab!
1 2 3 4 5
comments
print report bad tab
guest
You may want to rate the tab now too:
select rating
Wanna post a correction for this tab? Suggest correction