Oops, an error
Loading. Please wait.

Cómo Quieres Ser Mi Amiga? Chords

225 views 1 this week
no commentswrite comment
1 2 3 4 5
3 more votes to show rating
add to favorites
launch autoscroll
font size
0
reset
transpose
0
reset
simplify chords
display chords
guitar tuner
Autoscroll
slow
fast
+/-
esc
set tempo
stop
Help us to improve Ultimate-Guitar.com Take our survey!
×
EXCELENTE CANCION DE JARABE DE PALO
CON CARIÑO PARA UNA NIÑA MUY ESPECIAL

             Dm                          G7
  E-|-------1-------------1-------|-------1---------------|
  B-|---1-----------------------3-|---2-------------1_2-2-|
  G-|-----2-----------0_2-----2---|-----0-----------------|
  D-|-0---------------------------|-----------------------|
  A-|-----------------------------|-----------------------|
  M-|-----------------------------|-3---------------------|


               C                              F
  E -|-------0---------------------|-------1---------1---0-|
  B -|---1-------------------1---3-|---1-------------------|
  G -|-----0-----------------------|-----2-----------------|
  D -|-----------------------------|-----------------------|
  A -|-3---------------------------|-----------------------|
  E -|-----------------------------|-1---------------------|

Dm                   Gm
Cómo quieres ser mi amiga
C                       F
si por ti daría la vida,
Dm                   Gm
 si confundo tu sonrisa
C                    F
por camelo si me miras.

Dm        Gm
 Razón y piel,
C           F
difícil mezcla,
Dm      Gm
 agua y sed,
C               F
serio problema.
Dm                  Gm
Cómo quieres ser mi amiga
C                  F
si por ti me perdería
Dm                   Gm
si confundo tus caricias
C                   F
por camelo si me mimas.

Dm          Gm
Pasión y ley,
C            F
difícil mezcla,
Dm       Gm
agua y sed,
C             F
serio problema..

CORO
F              C           Dm
 Cuando uno tiene sed
 C                Bb
pero el agua no está cerca,
  C                Dm
cuando uno quiere beber
 C                  Bb
pero el agua no está cerca.

     F
Qué hacer,
Dm        A
tú lo sabes,
Bb       F
conservar
Dm       A
la distancia.
Bb       F
Renunciar
Dm      A
a lo natural,
Bb     F
y dejar
Dm             A
que el agua corra.


Dm                  Gm
Cómo vas a ser mi amiga
C                        F
cuando esta carta recibas,
Dm                      Gm
un mensaje hay entre líneas,
C                     F
cómo quieres ser mi amiga.


MI LIDA ¿¿¿¿¿¿¿¿¿¿¿¿¿¿¿¿COMO QUIERES SER MI AMIGA ??????????'''
TQM MI MUÑECOTA ......ME RECONTRA TRAGUE DE TI ¡¡¡¡¡¡¡¡¡

ferchobotellas@ Cualquier Duda o Sugerencia
Suggest correction
Give kudos to tab author, rate the tab!
1 2 3 4 5
comments
print report bad tab
guest
You may want to rate the tab now too:
select rating
Wanna post a correction for this tab? Suggest correction