Oops, an error
Loading. Please wait.

El Listón De Tu Pelo Tab

79 views 1 this week
no commentswrite comment
1 2 3 4 5
3 more votes to show rating
add to favorites
launch autoscroll
font size
0
reset
how to read this tab
guitar tuner
×
Best way to learn
"El Listón De Tu Pelo"
Autoscroll
slow
fast
+/-
esc
set tempo
stop
Espero les guste

Intro
Bm
e---------------------------|
B---------------------------|
G---------------------------|
D--4-4-4-4-4-4---4----------|
A--------------5-----5-2-5--|X2
E---------------------------|

e---------------------------|
B---------------------------|
G---------------------------|
D--4-4-4-4-4-4--------------|
A--------------5-2---2-0-2--|X2
E---------------------------|

(aqui entra el bajo)
e---------------------------|
B---------------------------|
G---------------------------|
D--4-4-4-4-4-4---4----------|
A--------------5-----5-2-5--|X2
E---------------------------|

e---------------------------|
B---------------------------|
G---------------------------|
D--4-4-4-4-4-4--------------|
A--------------5-2---2-0-2--|X2
E---------------------------|

     D
Me muerdo los labios
al no poderte besar
     Bm
mi piel se estremece 
al no poderte tocar
G
hoy por fin esta noche
                A
estaras junto a mi

  D
olvida la vanidad
      Bm
el orgullo dejalo afuera
        G
q esta noche sensual y bohemia 
                A
es por la ansiedad de q estes junto a mi

Bm


D
olvida la vanidad 
        Bm
y el orgullo dejalo afuera 
       G
y tus labios se entreabrieron 
         A                     (A7)
para decirme deseo y te quiero

D                        Bm
suelta, el liston de mi pelo
                 G
desvanece el vestido 
sobre mi cuerpo
              A
y acercate a mi

D                       Bm
beberas el perfume de mi piel
                G
deslizando una rosa
sobre mi cuerpo
      A
provocando amor


Bm
e---------------------------|
B---------------------------|
G---------------------------|
D--4-4-4-4-4-4--------------|
A--------------5-2---2-0-2--|X4
E---------------------------|

D
apagare la luz
     Bm
no puedo esperar mas
   G
aprendere de ti 
             A
hasta el final

D
provocame, mis labios
       Bm
hazme tuya 
   G
estoy impaciente de ti, 
               A                  (A7)
de tu sensualidad q siempre callé


D                        Bm
suelta, el liston de mi pelo
                 G
desvanece el vestido 
sobre mi cuerpo
              A
y acercate a mi

D                       Bm
beberas el perfume de mi piel
                G
deslizando una rosa
sobre mi cuerpo
      A
provocando amor

Bm
AAAhh  aaahhh  aaahhh
e---------------------------|
B---------------------------|
G---------------------------|
D--4-4-4-4-4-4--------------|
A--------------5-2---2-0-2--|X2
E---------------------------|

e---------------------------|
B---------------------------|
G---------------------------|
D--4-4-4-4-4-4---4----------|
A--------------5----5-2-5---|X2
E---------------------------|

e---------------------------|
B---------------------------|
G---------------------------|
D--4-4-4-4-4-4--------------|
A--------------5-2---2-0-2--|X2
E---------------------------|


D                        Bm
suelta, el liston de mi pelo
                 G
desvanece el vestido 
sobre mi cuerpo
              A
y acercate a mi

D                       Bm
beberas el perfume de mi piel
                G
deslizando una rosa
sobre mi cuerpo
      A
provocando amor

 Bm
 el listón de tu pelo
e---------------------------|
B---------------------------|
G---------------------------|
D--4-4-4-4-4-4--------------|
A--------------5-2---2-0-2--|
E---------------------------|

 el perfume de tu piel
e---------------------------|
B---------------------------|
G---------------------------|
D--4-4-4-4-4-4--------------|
A--------------5-2---2-0-2--|
E---------------------------|

 una rosa en tu cerpo
e---------------------------|
B---------------------------|
G---------------------------|
D--4-4-4-4-4-4---4----------|
A--------------5----5-2-5---|
E---------------------------|

 uuuhhhh
e---------------------------|
B---------------------------|
G---------------------------|
D--4-4-4-4-4-4---4----------|
A--------------5----5-2-5---|
E---------------------------|

 el liston de tu pelo
e---------------------------|
B---------------------------|
G---------------------------|
D--4-4-4-4-4-4--------------|
A--------------5-2---2-0-2--|
E---------------------------|

e---------------------------|
B---------------------------|
G---------------------------|
D--4-4-4-4-4-4--------------|
A--------------5-2---2-0-2--|
E---------------------------|

 y decir q te quiero
e---------------------------|
B---------------------------|
G---------------------------|
D--4-4-4-4-4-4---4----------|
A--------------5----5-2-5---|
E---------------------------|

e---------------------------|
B---------------------------|
G---------------------------|
D--4-4-4-4-4-4---4~~~-------|
A--------------5------------|
E---------------------------|

Espero les guste, si tienen dudas escribanme 
a mi mail musicmore5@ ando buscando
banda, asi q si saben de alguna
escribanme

visiten 
Suggest correction
Give kudos to tab author, rate the tab!
1 2 3 4 5
comments
print report bad tab
guest
You may want to rate the tab now too:
select rating
Wanna post a correction for this tab? Suggest correction