Oops, an error
Loading. Please wait.

Conmigo Volarás Chords

22 views 1 this week
no commentswrite comment
1 2 3 4 5
3 more votes to show rating
add to favorites
launch autoscroll
font size
0
reset
transpose
0
reset
display chords
guitar tuner
×
Best way to learn
"Conmigo Volarás"
Autoscroll
slow
fast
+/-
esc
set tempo
stop
Intro: B - G#m - E - F#

e|----7-9-11-11..--7-9-11-11/12/11-9-11-7/9..--------|
B|---------------------------------------------------|
G|--8------------8-----------------------------------|
D|---------------------------------------------------|
A|---------------------------------------------------|
E|---------------------------------------------------|

B
Tu me has elegido
G#m
porque estaba designado
E                            F#
me enseñaste a amar y a caminar

B
Vencimos el pasado
G#m
y cuantas cosas compartimos
E                              F#
dejamos nuestra suerte al porvenir(Riff 1)

E                  F#
  Y siempre nos dijimos(Riff 2)
E                      F#
  si hay vida hay que vivir

Riff 1                 Riff 2
e|-----------------| e|--6-7-9-7-6-7..-|
B|-----3/5-6..-----| B|----------------|
G|-5/6-------------| G|----------------|
D|-----------------| D|----------------|
A|-----------------| A|----------------|
E|-----------------| E|----------------|

Coro

         B      G#m
Conmigo volaras
                      F#
adonde el viento soplaria, y estes tu
         B      G#m
Conmigo volaras
                   F#
y nada te remplazaria, solo tu

Solo: B - F# - E - F#

e|-------------------9-11.-12-14-11-------------12-14-11------------------------------------|
B|-------------10-12----------------12-14-14/16----------12-12----14/16-12.-12/13-11-12-11..|
G|----9-10-12--------------------------------------------------13---------------------------|
D|-12---------------------------------------------------------------------------------------|
A|------------------------------------------------------------------------------------------|
E|------------------------------------------------------------------------------------------|

B
Dimos tiempo al tiempo
G#m
pasamos juntos tantas horas
E                            F#
cuantas veces fuimos bajo el sol(Riff 3)

Riff 3
e|-----6-7-9-6-7..--|
B|------------------|
G|---8--------------|
D|------------------|
A|------------------|
E|------------------|

B
Y ahora reconozco
G#m
que es tu amor inigualable
E                             F#
se que en tu mirada hay mucho mas(Riff 4)

Riff 4
e|--------------------------|
B|-----7-7-9-11-11-12-12..--|
G|---6----------------------|
D|--------------------------|
A|--------------------------|
E|--------------------------|


E                 F#
 siempre con tus ojos(Riff 2)
E               F#
 mis alas seguiran

Coro

A             B
 Conmigo volaras
G#m            E
 y asi te llevare
A              B
 al punto mas alto
         E
 como soñaste tu
C#m                      G#m
 porque confiabas en mis alas
            B
 y en mi amor

Coro:(cambia de tono)

        E      C#m
Conmigo volaras
                      G#m        B
adonde el viento soplaria, y vas tu
        E      C#m
Conmigo volaras
                  G#m        B
y nada te remplazaria, solo tu
   E                C#m
Confiate en mis alas
                       G#m           B
como siempre tu has confiado en mi amor
            E - B - C#m - G#m (x2)(con el riff 5)
nuestro amor

Riff 5
e|---------------------------------------------------|
B|---5-7-9---5-7-4/5-5-4/2-----2-4-5-7-9---5-7-4/5---|
G|---------8---------------4-4-----------8-----------|
D|---------------------------------------------------|
A|---------------------------------------------------|
E|---------------------------------------------------|


Final:             A - B - E....
        nuestro amor

* Cualquier observacio, xfa,  avisa por msn
Suggest correction
Give kudos to tab author, rate the tab!
1 2 3 4 5
comments
print report bad tab
guest
You may want to rate the tab now too:
select rating
Wanna post a correction for this tab? Suggest correction