Oops, an error
Loading. Please wait.

Astros Bajo El Mar Tab

by Jauría
32 views 1 this week
no commentswrite comment
1 2 3 4 5
3 more votes to show rating
add to favorites
launch autoscroll
font size
0
reset
how to read this tab
guitar tuner
×
Best way to learn
"Astros Bajo El Mar"
Autoscroll
slow
fast
+/-
esc
set tempo
stop
(1)

D                                       Em  Riff 1
Aspira el viento el viento dulce del verano
D                                               Em   Riff1
Que sabe a nuestra piel cuando hacemos y no pensamos

(2)

G                   D                    A
Hasta que no dudes mas condenado estoy aquí
                   C                             G
Para hacerte entender que por siempre estaré en ti
G                      D                          A
Desde el valle del horror hasta el mar de la ilusión
                     C  D
Ida y vuelta porque yo

        Em Riff 1 y Riff 2
soy tu hombre                x2


(1)

Las estrellas de mar caen directo desde el cielo

Y en la profundidad se congelan ahí el cielo


(2)

Y esa es la pura verdad lo demás me lo invente para

Hacerme el especial o el especial talvez

No quise hacerte llorar como niña sin edad dame un beso

No ves q yo soy tu hombre


PUENTE


(2)

G                   D                    A
Hasta que no dudes mas condenado estoy aquí
                   C                             G
Para hacerte entender que por siempre estaré en ti
G                      D                          A
Desde el valle del horror hasta el mar de la ilusión
                       C                          G
Hoy que somos más que dos las estrellas de este amor
G                   D    A    C
Hasta que no dudes más.


 Riff 1
e|---------|--------------|
b|---------|--------------|
g|---------|--9-11-7---0--|
d|---------|---------7----|
a|---------|--------------|
E|--3-0-3--|--------------|


       Solo:

e|----------------------------------------------------------|
b|----------------------------------------------------------|
g|----------------------------------------------------------|
d|------5-0-5-----5-0-5s7-----5-0-5s7-----5-0-5------5-0-5--|
a|--5-7-------5-7---------5-7---------5-7--------5-7--------|
E|----------------------------------------------------------|


--------------------------------------------------|
--------------------------------------------------|
---------------------------------------7b-5-------|
------5-0-5s7-----5-0-5s7--7b-5-----5------7-5-5--|
--5-7---------5-7---------------7-5---------------|
--------------------------------------------------|


        Puente:

e|--------------------------------12b-12b-12b-----|
b|------------------------------------------------|
g|--------9---------9----9b-9b-9b-----------------|
d|----9---------9---------------------------------|
a|--7---7-----7---7---7---------------------------|
E|------------------------------------------------|

Nota: Aca en el puente te puse lo que hace..fijense
      LA veces necesarias.
Suggest correction
Give kudos to tab author, rate the tab!
1 2 3 4 5
comments
print report bad tab
guest
You may want to rate the tab now too:
select rating
Wanna post a correction for this tab? Suggest correction