Oops, an error
Loading. Please wait.

Astros Bajo El Mar Bass Tab

8 views 1 this week
no commentswrite comment
1 2 3 4 5
3 more votes to show rating
add to favorites
launch autoscroll
font size
0
reset
guitar tuner
×
Best way to learn
"Astros Bajo El Mar"
Autoscroll
slow
fast
+/-
esc
set tempo
stop
Aspira el viento dulce del verano

  RE                      MI
G------------------------------------
D------------------------------------
A------------------------------------
E-10-10-10-10-10-10-10-10-12-12-12-12

G------------------------------------
D------------------------------------
A------------------------------------
E-3-0-3-0--0-0-0-0-0-0-0-0-0-0-0-0-0-

Que sabe a nuestra piel cuando hacemos y no pensamos

  RE                       MI
G------------------------------------
D------------------------------------
A------------------------------------
E-10-10-10-10-10-10-10-10-12-12-12-12


G----------------------------------------
D----------------------------------------
A------------------------------10--------
E-3-0-3-0--0-0-0-0-0-0-0-10-12----12-10-0

Hasta q no dudes mas....

G-----------------------------------------------------
D----------------------------------------------------- X2
A---------------5555555555555--------------33333333333
E-3333333333333---------------555555555555------------

Porque yo....

G---------------------------
D---------------------------
A-0-2-33333333333-5555555555
E---------------------------

Soy tu hombre....

  MI
G-------------------------------------    ---------------
D------------------------------------- X3 --------------- X1
A-------------------------------------    ---------------
E-00000/12121212-3-0-3-0-0000/12121212    -0000000000000-

Despues repite todo desde el principio exactamente igual...

Solo

G--------------------------------------------------------------------
D--------------------------------------------------------------------
A--------------------------------------------------------------------
E-7777777777777777-5555555555555555-8888888888888888-1010101010101010

G-----------------------------------------------------------------12------
D-----------------------------------------------------------12-14----14-12
A-------------------------------------------------------------------------
E-00000000000000000000000000000000/121212121212121212121212---------------

eso es todo el tema espero q les sirva. pablo prieto se la come :D
Suggest correction
Give kudos to tab author, rate the tab!
1 2 3 4 5
comments
print report bad tab
guest
You may want to rate the tab now too:
select rating
Wanna post a correction for this tab? Suggest correction