Oops, an error
Loading. Please wait.

Austin Tab

44 views 1 this week
no commentswrite comment
1 2 3 4 5
3 more votes to show rating
add to favorites
launch autoscroll
font size
0
reset
how to read this tab
guitar tuner
Autoscroll
slow
fast
+/-
esc
set tempo
stop
Help us to improve Ultimate-Guitar.com Take our survey!
×
Solo:

e|-----------------------------------------------------------
b|----------------------------------------12-12--12p10-8-5~--
g|-----------------------------7-----------------------------
d|-----------5-5-----------5-5---7b-7-5-7--------------------
a|-----3-5-7---------3-5-7-----------------------------------
E|-3-5-----------3-5-----------------------------------------

------------------------|
-8-7-5---8-8--7-8-10-8--|
-------7----------------|
------------------------|
------------------------|
------------------------|
Suggest correction
Give kudos to tab author, rate the tab!
1 2 3 4 5
comments
print report bad tab
guest
You may want to rate the tab now too:
select rating
Wanna post a correction for this tab? Suggest correction