Oops, an error
Loading. Please wait.

Canción De Cuna Chords

35 views 1 this week
no commentswrite comment
1 2 3 4 5
3 more votes to show rating
add to favorites
launch autoscroll
font size
0
reset
transpose
0
reset
simplify chords
display chords
guitar tuner
Autoscroll
slow
fast
+/-
esc
set tempo
stop
Help us to improve Ultimate-Guitar.com Take our survey!
×
Intro:
GUITARRA 1
RIFF A                                     RIFF B
e---------------------                   e---------------------
B---------------------                   B---------------------
G------------6--------                   G---------6-6---------
D----------5----------                   D---------------------
A--------6------------                   A---------------------
E-----0---------------                   E----0----------------


Cuando empieza a cantar:
BASE GUITARRA 2
e-------------------------------------
B-------------------------------------
G-------------------------------------
D--- 6--6--6----5-5-5--5--5-----------   (esta guitarra sería conveniente
A----7--7--7----6-6-6--6--6-----------   tocar para acompañarte en el fogón)
E-------------------------------------

[RIFF A GT1] + [GT2]
¿Quien soy?
 ¿Qué estoy buscando en medio de la ciudad tan a oscuras?
¿Quién soy?
¿Quién creo ser guiando a la humanidad tan a oscuras?

[RIFF B GT1] + [GT2]
¿Soy el bien? ¿soy el mal?
                           E
¿soy un dios? ¿soy satán?

A
¿Soy la luz divina?
                         E    Esus4  E  Esus4
¿soy el agua en el desierto?
A
¿soy el alma viva?
                 E
¿soy un sueño eterno?

    E     Em    E     Em
¿Soy tu dios? ¿Soy satán?
 E      Em        E
soy el bien, el mal,
    Em        E
el bien y el mal.

D  A  E  Bm   D  A  E
D  A  E  Bm   D  A


[RIFF A GT1] + [GT2]
¿Quién sos?
¿Qué estas buscando en medio de la ciudad tan a oscuras?
¿Quien sos?
¿Quién sos guiando a toda la humanidad tan a oscuras?

[RIFF B GT1] + [GT2]
¿Sos un dios? ¿sos satán?
¿sos el bien? ¿sos el mal?

¿Sos la luz que guía todo un pueblo en el desierto?
¿sos el alma viva? ¿sos el mismo infierno?

¿Sos mi dios? ¿sos satán?
sos el bien, el mal, el bien y el mal...

D  A  E  Bm   D  A  E
D  A  E  Bm   D  A

Como intro (sin GUITARRA 2)

Duerme niño, duerme ya,
duerme mi bien... duerme mi mal.

FINAL: [E/G#] en segunda posición (como el D, dos casilleros adelante y
con el dedo 4 en el 6to casillero de la 4ta cuerda.)

-------------------------------------------

Preguntas, consultas, sugerencias, insultos? Tomá!


Suggest correction
Give kudos to tab author, rate the tab!
1 2 3 4 5
comments
print report bad tab
guest
You may want to rate the tab now too:
select rating
Wanna post a correction for this tab? Suggest correction