Oops, an error
Loading. Please wait.

Canción De Cuna Tab

version 2
version 2

Whole song

by Jauría
38 views 1 this week
no commentswrite comment
1 2 3 4 5
3 more votes to show rating
add to favorites
launch autoscroll
font size
0
reset
how to read this tab
guitar tuner
Autoscroll
slow
fast
+/-
esc
set tempo
stop
Riff principal

Guitarra I:

e/-----------|
B/-----------|
G/-------6---|
D/-----5-----|
A/---6-------|
E/-0---------|

Guitarra II:

e/------------------|
B/------------------|
G/------------------|
D/--6-6-6-5-5-5-5-5-|
A/--7-7-7-6-6-6-6-6-|
E/------------------|


Riff principal:

Quién soy?, qué estoy buscando en medio de la ciudad tan a oscuras?

Quién soy? quién creo ser guiando a la humanidad tan a oscuras?

Soy el bien? soy el mal?

Soy un dios? soy satan? MI

   MI
e/--------|
B/--------|
G/--------|
D/---2----|
A/---2----|
E/---0----|


    LA                                         MI
e/-----------------------------------------------|
B/---2-------------------------------------------|
G/---2-----------------------------------------1-|
D/---2-----------------------------------------2-|
A/---0-----------------------------------------2-|
E/---------------------------------------------0-|
Soy la luz divina? soy el agua en el desierto?

LA
soy el alma viva? soy un sueño eterno?


     MI       MIm   MI     MIm
e/-----------------------------|
B/-----------------------------|
G/---1--------0-----1------0---|
D/---2--------2-----2------2---|
A/---2--------2-----2------2---|
E/---0--------0-----0------0---|
     soy tu dios?    soy satan?

MI      MIm       MI         MIm      MI
soy el bien y el mal...  el bien y el mal


Solo de cuerdas:

    SI5            LA5             MI5         SI5
e/------------------------------------------------|
B/---------------------------------10-9-10-9------|
G/--11-9-11-9------7-6-7-6-------------------9-11-|
D/------------9------------7----------------------|
A/------------------------------------------------|
E/------------------------------------------------|

    RE5            LA5       MI5
e/------------------------------|
B/------------------------------|
G/--11-9-11-9------7-6-7-6------|
D/------------9------------7-6--|
A/------------------------------|
E/------------------------------|

    SI5            LA5             MI5         SI5
e/------------------------------------------------|
B/---------------------------------10-9-10-9------|
G/--11-9-11-9------7-6-7-6-------------------9-11-|
D/------------9------------7----------------------|
A/------------------------------------------------|
E/------------------------------------------------|

    RE5            LA5       MI5
e/------------------------------|
B/------------------------------|
G/--11-9-11-9------7-6-7-6------|
D/------------9------------7----|
A/------------------------------|
E/------------------------------|


Riff principal:

Quién sos?, qué estas buscando en medio de la ciudad tan a oscuras?

quién sos?, quién sos guiando a toda la humanidad tan a oscuras?

sos un dios? sos satan?

sos el bien? sos el mal?

LA                                                MI
sos la luz que guia todo un pueblo en el desierto?

LA
sos el alma viva? sos el mismo infierno?

MI       MIm     MI     MIm
sos mi dios?     sos satan?

MI      MIm      MI      MIm       MI
sos el bien y el mal el bien y el mal


Solo de cuerdas:

    SI5            LA5             MI5         SI5
e/------------------------------------------------|
B/---------------------------------10-9-10-9------|
G/--11-9-11-9------7-6-7-6-------------------9-11-|***
D/------------9------------7----------------------|
A/------------------------------------------------|
E/------------------------------------------------|

***Justo al final de la nota de arriba (11) y antes que empiece
el compas de abajo, una guitarra hace lo siguiente:
e/---------------------|
B/---------------------|
G/-----7-9-9b10-7-9b11-|
D/---9-----------------|
A/---------------------|
E/---------------------|
---

Y sigue la melodía de cuerdas..

    RE5            LA5       MI5
e/------------------------------|
B/------------------------------|
G/--11-9-11-9------7-6-7-6------|
D/------------9------------7-6--|
A/------------------------------|
E/------------------------------|

    SI5            LA5             MI5         SI5
e/------------------------------------------------|
B/---------------------------------10-9-10-9------|
G/--11-9-11-9------7-6-7-6-------------------9-11-|***
D/------------9------------7----------------------|
A/------------------------------------------------|
E/------------------------------------------------|

***Guitarra: lo mismo que en la vuelta anterior.
e/---------------------|
B/---------------------|
G/-----7-9-9b10-7-9b11-|
D/---9-----------------|
A/---------------------|
E/---------------------|
---

    RE5            LA5       MI5
e/------------------------------|
B/------------------------------|
G/--11-9-11-9------7-6-7-6------|
D/------------9------------7----|
A/------------------------------|
E/------------------------------|

Final:

e/-----------|
B/-----------|
G/-------6---|
D/-----5-----|
A/---6-------|
E/-0---------|

Duerme niño, duerme ya
                              MI
Duerme mi bien, duerme mi mal


---
Versión corregida y un poco mejorada de la que estaba.

Saludos mestizos!

bona.


Face: Gonzalo Bona
Suggest correction
Give kudos to tab author, rate the tab!
1 2 3 4 5
comments
print report bad tab
guest
Wanna post a correction for this tab? Suggest correction