Oops, an error
Loading. Please wait.

El Poder Nuestro Es Tab

221 views 1 this week
no commentswrite comment
1 2 3 4 5
3 more votes to show rating
add to favorites
launch autoscroll
font size
0
reset
how to read this tab
guitar tuner
×
Best way to learn
"El Poder Nuestro Es"
Autoscroll
slow
fast
+/-
esc
set tempo
stop
Esta Es Una Canción Clásica!
El Segundo Opening De DBZ Para Que Lo Aprendan A Tocar
Tanto En Guitarra Acústica Como En Eléctrica.

Intro:

e|-----------------------------------------------|------|
B|-----------------------------------------------|------|
G|-----------12----12-14-12-14-16-14-16-19-19-19-|--12--|
D|--12-12-12----12-------------------------------|--12--|
A|-----------------------------------------------|--10--|
E|-----------------------------------------------|------|

e|----------------------------------------------|
B|----------------------------------------------|
G|--------5-4-5-7-5-7-9-7-9-11--5-5-5-5-5-5-5-7-|
D|--5-5-5---------------------------------------|
A|----------------------------------------------|
E|----------------------------------------------|


Estrofa:

e|----------------|------------------|-------------|
A|----------------|------------------|-8-7---7---7-|
G|-----8-10-10-10-|-12-12-12-10-8-10-|-----9---9---|
D|--10------------|------------------|-------------|
A|----------------|------------------|-------------|
E|----------------|------------------|-------------|

e|----------------------------|-------------|
A|-13-13-11--9-9-8------------|-------------|
G|------------------8-8-------|----8--------|
D|----------------------10-10-|-10---10-9-8-|
A|----------------------------|-------------|
E|----------------------------|-------------|

e|----------------|------------------|
A|----------------|------------------|
G|-----8-10-10-10-|-12-12-12-10-8-10-|
D|--10------------|------------------|
A|----------------|------------------|
E|----------------|------------------|

e|----------------|-------------11-11-|
A|-13-13-11-9-9-8-|-------------14-14-|
G|----------------|-8-8h10-10---------|
D|----------------|-------------------|
A|----------------|-------------------|
E|----------------|-------------------|

e|-----------------------------------|
A|-13-11-13/16-14-13-11-13--11h13----|
G|-----------------------------------|
D|-----------------------------------|
A|-----------------------------------|
E|-----------------------------------|

e|---------------------------------------8-9-8-8-|
A|-13-11-13/16-14-13-11--11-13-13--9-11----------|
G|-----------------------------------------------|
D|-----------------------------------------------|
A|-----------------------------------------------|
E|-----------------------------------------------|

e|-16-15-13-11-|-11-13-13----------|
A|-------------|----------16-13-13-|
G|-------------|-------------------|
D|-------------|-------------------|
A|-------------|-------------------|
E|-------------|-------------------|

e|-16-15-13-11-|----------13-13----|
A|-------------|-13-13-16----------|
G|-------------|-------------------|
D|-------------|-------------------|
A|-------------|-------------------|
E|-------------|-------------------|

e|-13-13-15-16-16-13--16-16-13--15-15-11--15-15-11-|
A|-------------------------------------------------|
G|-------------------------------------------------|
D|-------------------------------------------------|
A|-------------------------------------------------|
E|-------------------------------------------------|

e|-16-15-13-11------------------------15-16-|
A|--------------14-14-14-16-16-16-13--------|
G|------------------------------------------|
D|------------------------------------------|
A|------------------------------------------|
E|------------------------------------------|

Espero Que Les Guste x)
cualquier corrección o duda
Avísenme a mi correo DJcito0@
Suggest correction
Give kudos to tab author, rate the tab!
1 2 3 4 5
comments
print report bad tab
guest
You may want to rate the tab now too:
select rating
Wanna post a correction for this tab? Suggest correction