Oops, an error
Loading. Please wait.

Indios Kilme Tab

25 views 1 this week
no commentswrite comment
1 2 3 4 5
3 more votes to show rating
add to favorites
launch autoscroll
font size
0
reset
how to read this tab
guitar tuner
Autoscroll
slow
fast
+/-
esc
set tempo
stop
Help us to improve Ultimate-Guitar.com Take our survey!
×
INDIOS KILME (Letra: Pertusi / Música: Pertusi, Serniotti, Fajardo, Ambesi)

Intro:

G Bb  F5 Eb5  F5

-------------------------------------------
-----------------------------------6----6--
---------3---------------3--57-5-7---7-----
---5-3-5----5---3-5-3-5--------------------
-------------------------------------------
--------------------------------------------

---------------------------------------------
8--6------------------3----------------------
--7---5---35--3--5---5--5--3-5-3-2--------------
---------------------------------------------
---------------------------------------------
---------------------------------------------

G5                                             Bb5
Llegaron pensando en apoderarse del valle calchaquí
F5                                 Eb5                 F5
y pasaron mas de un siglo en medio de una guerra sin fin.

lndios Kilme resistieron 130 años con valor,
los guardianes de la tierra contra el colonizador.

(EN LOS SOL SOLTAR Y APRETAR LA 6TA CUERDA EN EL 3er TRASTE)

G5                 Bb      F            G#5
Desterrados de su dios, su creencia natural,
G5                  C5            Eb        F5
los fueron extinguiendo con torturas y maldad.

Obligados a marchar desde el valle a la ciudad,
vencidos de hambre y sed, pero en combate jamás.

Mujeres con hijos se arrojaron al vacío sin duda
para no ser sometidas y su raza pura preservar.

Indios Kilme infinitos cada noche vuelven a brillar,
reencarnados en estrellas, desde el cielo nos verán.

Desterrados de su dios, su creencia natural,
los fueron extinguiendo con torturas y maldad.

Obligados a marchar desde el valle a la ciudad,
vencidos de hambre y sed, pero en combate jamás.
Suggest correction
Give kudos to tab author, rate the tab!
1 2 3 4 5
comments
print report bad tab
guest
You may want to rate the tab now too:
select rating
Wanna post a correction for this tab? Suggest correction