Oops, an error
Loading. Please wait.

Indios Kilme Bass Tab

42 views 1 this week
no commentswrite comment
1 2 3 4 5
3 more votes to show rating
add to favorites
launch autoscroll
font size
0
reset
guitar tuner
Autoscroll
slow
fast
+/-
esc
set tempo
stop
Help us to improve Ultimate-Guitar.com Take our survey!
×
intro

G------------------------------------------------------------------
D-----------------------------3-----3-----3-5-3--------------------
A---------1-----------1/3--55---55----55---------5-4-33-1-33-1--33--
E-33-1-33---33--1-3-1-----------------------------------------------

-----------------------------------
0----------------------------------
--3-1------------------------------
--------3-1-/--666666-8-6-55555----


1ra estrofa

Llegaron pensando en apoderarse del valle calchaquí
-------------------------------------------------------------------------------
------------------------------------------------------------------------875----
-------------------111111111111111---------------------66666666---8888-------8-
-3333333333333333--------------------1111111111111111--------------------------


lndios Kilme resistieron 130 años con valor
--------------------------------------------------------------------------
--------------------------------------------------------------------------
-------------------111111111111111---------------------66666666---88888888-
-3333333333333333--------------------1111111111111111----------------------


estribillo


Desterrados de su dios, su creencia natural
-----------------------------------------------------------------
--------------------------------------------5-3------------------
----------11111111-------------6666666-----------543--3333333----
31-31-31--------------11--431------------3-----------------------


----------------------------------
----------------------------------
-6666666--------------------------
-----------11111111---------------


(se repite)

repite intro


2da estrofa

Mujeres con hijos se arrojaron al vacío sin duda
-------------------------------------------------------------------------------
------------------------------------------------------------------------887----
-------------------111111111111111---------------------66666666---8888-------8-
-3333333333333333--------------------1111111111111111--------------------------


Indios Kilme infinitos cada noche vuelven a brillar
--------------------------------------------------------------------------
--------------------------------------------------------------------------
-------------------111111111111111---------------------66666666---88888888-
-3333333333333333--------------------1111111111111111----------------------


estribillo x2
intro x2


final:
------------------
------------------     -las barras ---]  /  son slides
------------------
33---33---15/3----     -lo unico que cambia entre la 1er estrofa y la segunda
                        es el arreglo de la 2da cuerda (re) 8-7-5  y  8-8-7
Suggest correction
Give kudos to tab author, rate the tab!
1 2 3 4 5
comments
print report bad tab
guest
You may want to rate the tab now too:
select rating
Wanna post a correction for this tab? Suggest correction