Oops, an error
Loading. Please wait.

La Jauría Tab

version 1
version 1

Whole song

11 views 1 this week
no commentswrite comment
1 2 3 4 5
3 more votes to show rating
add to favorites
launch autoscroll
font size
0
reset
how to read this tab
guitar tuner
×
Best way to learn
"La Jauría"
Autoscroll
slow
fast
+/-
esc
set tempo
stop
 Intro:

e|-------------------------------------------|
b|-------------------------------------------|
g|-------------------------------------------|
d|------------5-------------------5---5-5-7--|
a|------7-7-7---7-5---------7-7-7---7--------|
E|--5-5-------------8---5-5------------------|


  Riff 1       A5 A5  Riff 2                Riff 3
e|-------------------|---------------------|-------------|
b|-------------------|--9-9--9-9-9--9-9----|--9-9-9-8-0--|
g|-------------------|--9-9--9-9-9--9-9----|--9-9-9-8-0--|
d|--------------7-7--|---------------------|-------------|
a|--------------7-7--|---------------------|-------------|
E|--7-5-3-0-3-5-5-5--|---------------------|-------------|

 Riff 4 (con P.M)
e|--------------------------------|
b|--------------------------------|
g|--------------------------------|
d|--------------------------------|
a|--------------------------------|
E|-7-7-7-5-5-5-3-3-3-0-0-0-3-3-5--|


 Riff 5
|-----------------------------------------------------|
|---------9-9---------8-8---------10-10---------9-9---|
|---------9-9---------8-8---------10-10---------9-9---|
|-----------------------------------------------------|
|-0-0-0-0----0-0-0-0-----0-0-0-0--------0-0-0-0-------|
|-----------------------------------------------------|
P.M .....    .......     .......        .......

A5-A5
De que no sepas de esta raza fiel

G5-A5-A5               Riff 1
Que habitamos en medio de este infierno

   Riff2
Viviendo libres si, corriendo libre si

Libre o muerto no hay opcion aquí
A5(P.M)                         G5-A5-A5
Es claro el reglamento a seguir,esta muy
                 Riff 4
Claro que no hay reglamento
Riff 2
No hay una logica,instinto animal

Vida de perros siempre libertad

D5              G5             Riff 3
Pobre gente buscando felicidad
D5              G5                Riff 3
Insaciables consumen de todo y mas
D5             G5
Falsa vida vacia y superficial
E5
Y se mueren por estar aca
En la jauría de la libertad!!

Intro

A5(P.M)                      G5-A5-A5
Ojos de perro para ver mejor,
A5                   Riff 4
Oido agudo que advierte el peligro
A5
Olfato de criptor, de mala humanidad
Listos para correr o atacar

D5              G5             Riff 3
Pobre gente buscando felicidad
D5              G5                Riff 5
Insaciables consumen de todo y mas
D5             G5
Falsa vida vacia y superficial
E5
Y se mueren por estar aca
En la jauría de la libertad!!

Solo:

e|---------------------------------------------------------------------
b|-----------------------7-7-8-8-10-10---------------------------------
g|--9-9-7-7-5-5-4-4--9-9---------------16b-16b-16b-16h14----------14-12
d|-------------------------------------------------------16-14-16------
a|---------------------------------------------------------------------
E|---------------------------------------------------------------------


 ---------------12--12--12----12--12---|
 -7s8-7---7-----16b-16b-16b---16b-16b--|
 -------9---9-8------------------------|
 --------------------------------------|
 --------------------------------------|
 --------------------------------------|


A5(P.M)
Quien sabe a donde vamos a dormir,
                          Riff 4
Quien sabe cuando diablos comeremos,
Riff 2
Anochecer aquí amanecer alla,

en la ruta muertos terminar

D5              G5             Riff 3
Pobre gente buscando felicidad
D5              G5                Riff 5
Insaciables consumen de todo y mas
D5             G5
Falsa vida vacia y superficial
E5
Y se mueren por estar aca
En la jauría de la libertad!!


Intro

A5(P.M)

Termina en A5-A5
Suggest correction
Give kudos to tab author, rate the tab!
1 2 3 4 5
comments
print report bad tab
guest
You may want to rate the tab now too:
select rating
Wanna post a correction for this tab? Suggest correction