Oops, an error
Loading. Please wait.

La Jauría Tab

version 2
version 2

Whole song

13 views 1 this week
no commentswrite comment
1 2 3 4 5
3 more votes to show rating
add to favorites
launch autoscroll
font size
0
reset
how to read this tab
guitar tuner
Autoscroll
slow
fast
+/-
esc
set tempo
stop
Help us to improve Ultimate-Guitar.com Take our survey!
×
Mestizos!
Intro x2
E|----------------|----------------|
B|----------------|----------------|
G|*---------------|---------------*|
D|*7-7-----5------|7-7-----5----5-*|
A|-7-7-5/7--7-5---|7-7-5/7--7-5----|
E|-5-5----------7-|5-5-------------|

A
Que hay que no sepas de esta raza fiel
                          Riff1
Que habitamos en medio de este infierno
A
Viviendo libres si! Corriendo libres si!
Libre o muerto, no hay opción aquí

A
Es claro el reglamento a seguir
                          Riff1
esta muy claro que no hay reglamento
A           D               C
No hay una lógica! Instinto animal:
        A
Vida de perros siempre en libertad!

D           G                A Riff2
Pobre gente buscando felicidad
D           G                    A Riff2
Insaciables consumen de todo y más
D           G
Falsa vida, vacía y superficial
Em
Y se mueren por estar acá
                   Riff4
En la jauría de la libertad!

A
Ojos de perro para ver mejor
                         Riff1
Oído agudo que advierte el peligro
A
Olfato detector de mala humanidad
Listos para correr o atacar

D           G                A Riff2
Pobre gente buscando felicidad
D           G                    A Riff3
Insaciables consumen de todo y más
D           G
Falsa vida, vacía y superficial
Em
Y se mueren por estar acá
                   Riff4
En la jauría de la libertad!

Solo C Em Cm D G Riff5

E|---------------|---------------|
B|---------------|---------------|
G|---------------|---------------|
D|7-7-----5------|7-7-----5----5-|
A|7-7-5/7--7-5---|7-7-5/7--7-5---|
E|5-5----------7-|5-5------------|

A
Quien sabe a donde vamos a dormir
                          Riff1
Quien sabe cuando diablos comeremos
A
Anochecer aquí, amanecer allá
Y en la ruta muertos terminar!!!

D           G                A Riff2
Pobre gente buscando felicidad
D           G                    A Riff3
Insaciables consumen de todo y más
D           G
Falsa vida, vacía y superficial
Em
Y se mueren por estar acá
                   Riff4
En la jauría de la libertad!
E|----------------|----------------|
B|----------------|----------------|
G|*---------------|---------------*|
D|*7-7-----5------|7-7-----5----5-*|
A|-7-7-5/7--7-5---|7-7-5/7--7-5----|
E|-5-5----------7-|5-5-------------|
Outro A

Riff1
E|-------------|
B|-------------|
G|-------------|
D|10-7-5-3-5-7-|
A|10-7-5-3-5-7-|
E|-8-5-3-1-3-5-|

Riff2
E|----------------------|
B|----------------------|
G|-----------7-7-5-5-3--|
D|7-7-5-5-3--7-7-5-5-3--|
A|7-7-5-5-3--5-5-3-3-1--|
E|5-5-3-3-1-------------|

Riff3
E|--------------------|
B|--------------------|
G|----------7-7-5-5---|
D|7-7-5-5---7-7-5-5---|
A|7-7-5-5---5-5-3-3---|
E|5-5-3-3-------------|

Riff4
E|--------|
B|--------|
G|--------|
D|3-5-6-7-|
A|3-5-6-7-|
E|1-3-4-5-|

Riff5
E|------------|
B|------------|
G|------------|
D|2-3-5-3-5-7-|
A|2-3-5-3-5-7-|
E|0-1-3-1-3-5-|

Espero que les guste, en realidad es mi primera tab
y cualquier corrección se agradece
Si está mal alguien que suba una mejor...
Así aprendemos todos
alb-co01@
Suggest correction
Give kudos to tab author, rate the tab!
1 2 3 4 5
comments
print report bad tab
guest
You may want to rate the tab now too:
select rating
Wanna post a correction for this tab? Suggest correction