Oops, an error
Loading. Please wait.

Calle De Alcalá Tab

15 views 3 this week
no commentswrite comment
1 2 3 4 5
3 more votes to show rating
add to favorites
launch autoscroll
font size
0
reset
how to read this tab
guitar tuner
×
Best way to learn
"Calle De Alcalá"
Autoscroll
slow
fast
+/-
esc
set tempo
stop
Fraseo de introducción
E|-----------------|-----------------|-----------------|-----------------|
B|-------3-------3-|-----------------|-------3-------3-|-----------------|
G|-----0-----0-----|-----0-------0---|-----0-----0-----|-----0-----0---0-|
D|-----0-----------|-----------------|---2-------------|-0-----2-----0---|
A|-----------------|-0-------2-------|-3---------------|-----------------|
E|-3---------------|-----------------|-----------------|-----------------|

Fraseo I
   G5                                  C(add9)
E|-----------------|-----------------|-----------------|-----------------|
B|-------3-------3-|-----------------|-------3-------3-|-----------------|
G|-----0-----0-----|-----0-----0---0-|-----0-----0-----|-----0-----0---0-|
D|-----0-----------|-----------------|---2-------------|-0-----2-----0---|
A|-----------------|-------0-----2---|-3---------------|-----------------|
E|-3---------------|-3---------------|-----------------|-----------------|
 |                 |                 |                 |                 |
A|-----------------|-----------0-2h3-|-----------------|-----------------|
E|(3)--------3---3-|-----------------|-----------3---2-|-----------2---3-|

Fraseo II
   G5                                  D5                C(add9)
E|-----------------|-----------------|-----------------|-----------------|
B|-------3-------3-|-----------------|-------3-------3-|-----------------|
G|-----0-----0-----|-----0-----0-----|-----2-----2-----|-------0---0---0-|
D|-----0-----------|-----------------|-0---------0-----|-----0-------2---|
A|-----------------|-----------------|-----------------|-3---------------|
E|-3---------------|-3-----2-----0---|-----------------|-----------------|
 |                 |                 |                 |                 |
A|-----------------|-----------------|-5---------------|-3---------------|
E|-3---------3---3-|-3-----2-----0---|-----------------|-----------------|

Fraseo III (tiempo medio) (ad lib.)
   n.C.
E|-----------------|-----------------|-----------------|-----------------|
B|-----------------|-------1-----1---|-------0---------|-------3-----3---|
G|-0---------------|----0--0--0------|----0-----0------|----2-----2----2-|
D|-----------------|-----------------|-----------------|-----------------|
A|-----------------|-3---------------|-2---------------|-----------------|
E|-3---------------|-----------------|-----------------|-2---------------|

E|-------0-----0---|-----------------|---------------|---------|---------|
B|-------1-----1---|-------1-----1---|-------0-------|---------|---------|
G|----2-----2----2-|----0--0--0------|----0-----0----|-2-------|---0--0--|
D|-----------------|-----------------|---------------|---------|---------|
A|-0---------------|-3---------------|-2-------------|---------|----0--2-|
E|-----------------|-----------------|---------------|-2-------|-3-------|

Fraseo de introducción, Fraseo I sin bajo
Estrofa 1 (Fraseo I 2x, Fraseo II 2x)
   Qué galleta del catorce va y me da este párroco del tráfico al doblar
   Una esquina de la calle de Alcalá, justo en tiempos de bendita libertad
Estrofa 2 (Fraseo I 2x, Fraseo II 2x)
   Con su furia más poética y sagaz, me cobija de las bombas de Bagdad
   Con un velo cenicienta por la paz, en la esquina de la calle de Alcalá
Fraseo I 2x
Estrofa 3 (Fraseo I 2x, Fraseo II 2x)
   Reconozco que no está muy bien mear, pero ya me han dicho no en el
quinto bar
   Continúa concentrada la ciudad, en la esquina de la calle de Alcalá
Fraseo I 2x
Final (Fraseo III, Fraseo I 2a mitad, Fraseo I, G5)
   ¿Y quién me dice lo que debo hacer y puedo ser en Bagdad?
   ¿Quién me dice lo que debo hacer y debo ser en Alcalá?
Suggest correction
Give kudos to tab author, rate the tab!
1 2 3 4 5
comments
print report bad tab
guest
You may want to rate the tab now too:
select rating
Wanna post a correction for this tab? Suggest correction