Oops, an error
Loading. Please wait.

La Casa Del Sol Naciente Tab

116 views 1 this week
no commentswrite comment
1 2 3 4 5
3 more votes to show rating
add to favorites
launch autoscroll
font size
0
reset
how to read this tab
guitar tuner
Autoscroll
slow
fast
+/-
esc
set tempo
stop
A mi mamá Patricia Hernández Martinez que es la
mejor mamá del mundo

  Am       C       D      F       Am      E
e-----0--------0------2-------1------0--------0-
b----1-1------1-1----3-3-----1-1----1-1------0--
g---2---2----0---0--2---2---2---2--2---2----1---
d--2-----2--2-----20-----0-3-----32-----3--2----
a-0-------03--------------3--------------02-----
e-----------------------------------------------
      Am       E7
e---------0--------0----------------------------
b-0------1-1------0-0---------------------------
g--1----2---2----1---1--------------------------
d---2--2-----2--0-----0-------------------------
a----20-------02--------------------------------
e-----------------------------------------------
  Am       C       D      F
e-----0--------0------2-------1---
b----1-1------1-1----3-3-----1-1--
g---2---2----0---0--2---2---2---2-
d--2-----2--2-----20-----0-3-----3
a-0-------03--------------3-------
e---------------------------------

Asi el mismo arpegio con las notas siguientes
(asegurate de dejar lo tiempos como siguen)

.Am            C             D       F
.Am                C         E     E7
.       Am               C          D                 E7
.        Am             E7         Am        C D F Am E Am E7
Suggest correction
Give kudos to tab author, rate the tab!
1 2 3 4 5
comments
print report bad tab
guest
You may want to rate the tab now too:
select rating
Wanna post a correction for this tab? Suggest correction