Oops, an error
Loading. Please wait.

Imágenes Paganas Tab

19 views 1 this week
no commentswrite comment
1 2 3 4 5
3 more votes to show rating
add to favorites
launch autoscroll
font size
0
reset
how to read this tab
guitar tuner
Autoscroll
slow
fast
+/-
esc
set tempo
stop
Help us to improve Ultimate-Guitar.com Take our survey!
×
Esta rola la escuche en una recopilacion asi que no estoy 
seguro de que haya o no otra version ademas de la de Virus, 
pero ahi les va. Por cierto esta es mi primer transcripcion 
asi que les agradeceria cualquier comentario, queja , etc.


 intro Em C D

luego entra otra lira haciendo esta figura

Fig.1
            Em          C     D
e ------------------i---------------i----------------i
a ------------------i---------------i----------------i
d ------------------i---------------i----------------i
g --------0-2-------i---------------i--------0-2-----i
b ---0-2------------i---0-3---3-5---i---0-2----------i
e -------------0----i---------------i-------------0--i

  La figura se repite a lo largo de los versos

  Em                 C         D
Vengo agotado de cantar, en la niebla
por la autopista junto al mar, hay gitanos
van celebrando un ritual, ignorado
mis propias luces ya no estan, espejismos

Coros:

   G                 C9
Remolino mezcla los besos y la ausencia

     Em7              Am
imagenes paganas se desnudan en sueños

Fig. 1

Fig. 2
e-------------i--------------------
b---7--5------i-5------------------
g---------4---i----7--5------------
d-------------i-----------5-5/7----
a-------------i--------------------
e-------------i--------------------

se repite

verso 2

   Em         C        D
En el espejo reflejos, viajeros
un apagon sentimental, la ruta pasa
vuelve el deseo y la ansiedad de este cuerpo
mi boca quiere pronunciar, el silencio

Coro
Se repiten las fig. 1 y 2

Solo
e----------------------------------------------10---10----10--10--12--14--i
b---7--5---7--5---7-7-8--10---8--10---10-10--12---12----12----------------i
g-------------------------------------------------------------------------i
d-------------------------------------------------------------------------i
a-------------------------------------------------------------------------i
e-------------------------------------------------------------------------i

Se repite coro y termina.

.-.-.-.-.-.-.-.-.-.-.-.-.-.-.-.-.-.-.-.-.-.-.

Acoredes:
    Ebgdae
Em  000220
C   010233
D   030455
G   330023
Em7 010220
C9  030230
Am  012200
Suggest correction
Give kudos to tab author, rate the tab!
1 2 3 4 5
comments
print report bad tab
guest
You may want to rate the tab now too:
select rating
Wanna post a correction for this tab? Suggest correction