Oops, an error
Loading. Please wait.

En El Coño Del Mar Tab

2 views 1 this week
no commentswrite comment
1 2 3 4 5
3 more votes to show rating
add to favorites
launch autoscroll
font size
0
reset
how to read this tab
guitar tuner
×
Best way to learn
"En El Coño Del Mar"
Autoscroll
slow
fast
+/-
esc
set tempo
stop
  Riff 1
e|---------------||
B|---------------||
G|---------------||
D|---------------||
A|---------------||
E|-2--2-2--------||

  Riff 2                Riff 2a
e|---------------||   e|-----------------||
B|---------------||   B|-----------------||
G|---------------||   G|-----------------||
D|---------------||   D|-----------------||
A|----------4-4--||   A|----------4-4----||
E|-2--0--2-------||...E|-2--0--2-------2-||

  Riff 3                Riff 3a
e|---------------||   e|-----------------||
B|---------------||   B|-----------------||
G|---------------||   G|-----------------||
D|---------------||   D|-----------------||
A|----0-----4-4--||   A|----0------------||
E|-2-----2-------||...E|-2-----2---------||

  Riff 4
e|---------------||
B|---------------||
G|---------------||
D|----0-----4-4--||
A|-2-----2-------||
E|---------------||

  solo
e|-----------------------------------------||
B|-----------------------------------------||
G|-----------------------------------------||
D|-----------------------------------------||
A|-----------------------------------------||
E|-0--3-0-6-5--0--3-0-6-5---0-3-0-6-5--0---||

e|-----------------------------------------||
B|-----------------------------------------||
G|-----------------------------------------||
D|-----------------------------------------||
A|-0--3-0-6-5--0--3-0-6-5---0-3-0-6-5--0---||
E|-----------------------------------------||

e|---------------------------------------------||
B|---------------------------------------------||
G|---------------------------------------------||
D|----0---4-3----------------------------------||
A|-2----2--------0--3-0-6-5--------------------||
E|-----------------------------0--3-0-6-5--0---||

intro
 Riff 1 (6 veces), Riff 2 (2 veces)

 Riff 3                             Riff 3
Terciopelo submarino tapizando el club.
    Riff 3                               Riff 3
Corpiño de encaje, ligas, medias de cristal...
    Riff 4                             Riff 4
Bebiendo ron de medusas con sostén de lágrimas,
 Riff 3                                 Riff 3a
descuartizas los misterios de mi bienestar.

                Riff 2a
En el coño del mar.
                Riff 2
En el coño del mar.

Riff 3                             Riff 3
El orgasmo de las olas platea tus muslos.
    Riff 3                                Riff 3
Desnúdate en silencio, despréndete de tus alas.
    Riff 4                                   Riff 4
Las uñas de tus pies pintadas con sangre de mar.
 Riff 3                            Riff 3a
Báilame en tu laberinto friendo dolores.

                Riff 2a
En el coño del mar.
                Riff 2
En el coño del mar.

(solo- 2 veces)

                                                Riff 3
Tus pechos me pinchan mientras me quemo en tu vientre.
    Riff 3                                 Riff 3
Follando y tosiendo, follando y tosiendo gloria.
    Riff 4                                   Riff 4
Mordiendo tus piernas hacia el túnel de tus nalgas,
    Riff 3                                 Riff 3
vislumbro el esfínter virgen del Espíritu Santo.

              Riff 2a
Del Espíritu Santo.
                Riff 2a
En el coño del mar.
                Riff 2a
En el coño del mar.

En el coño del mar.
Suggest correction
Give kudos to tab author, rate the tab!
1 2 3 4 5
comments
print report bad tab
guest
You may want to rate the tab now too:
select rating
Wanna post a correction for this tab? Suggest correction