Oops, an error
Loading. Please wait.

Tranquila Chords

179 views 1 this week
no commentswrite comment
1 2 3 4 5
3 more votes to show rating
add to favorites
launch autoscroll
font size
0
reset
transpose
0
reset
display chords
guitar tuner
Autoscroll
slow
fast
+/-
esc
set tempo
stop
Help us to improve Ultimate-Guitar.com Take our survey!
×
"Tranquila" de Javier García

Suerte para todos los músicos y no músicos que visitan La Cuerda

Acordes utilizados: Bm (Si menor), F# (Fa sostenido mayor), G (Sol mayor)
Base: | Bm     F#   | F#     Bm   |


[Intro] //Riff//
| Bm     F#   | F#     Bm   | // Éste, solo, sin percusión //
| Bm     F#   | F#     Bm   | // Sin acordes //

[Estrofas] //Lick 1// Sin Acordes //
                   F#                       Bm
Despacio con ritmo bueno, así se llega a la cima
            F#                       Bm
Suave, suavecito, no vayas con tanta prisa
                  F#                     Bm
Recorre todo el terreno, súbete a una montaña
             F#                Bm
quédate un ratito y después te bajas


[Puente] //Rasgueo de cumbia//
             F#                Bm
Quédate un ratito y después te bajas
             F#                Bm
Quédate un ratito y después te bajas


(Estrofas) //Lick 2//
               F#                  Bm
Huele una margarita, una rosa y un clável
                  F#                  Bm
prueba un poco de todo, lo que sea placer
             F#                   Bm
Para gozarlo rico, tienes que conocer


(Puente) //Rasgueo de cumbia//
              F#                  Bm
Lo bueno y lo malo, y lo te dé placer
              F#                  Bm
Lo bueno y lo malo, y lo te dé placer


[Solo de trompeta] //Rasgueo de cumbia//
| Bm     F#   | F#     Bm   |
| Bm     F#   | F#     Bm   |

(Estrofas) //Lick 3//
                F#                  Bm
Ahora en buen camino, nada nos va a parar
                    F#               Bm
Lo que sea que encontremos, nos gustará


(Puente) //Rasgueo de cumbia//
                    F#               Bm
Lo que sea que encontremos nos gustará
                    F#               Bm
Lo que sea que encontremos nos gustará


[Estribillo] //Rasgueo de cumbia//
Tum--------------F#     F#               Bm
Para recorrer tranquila, sígueme a mí tranquila
Bm                F#     F#                   Bm
Deja de correr, tranquila, no se terminarán tus vidas

Bm                  F#     F#               Bm
P-Para recorrer tranquila, sígueme a mí tranquila
Bm                F#     F#                   Bm
Deja de correr, tranquila, no se terminarán tus vidas

Bm                F#     F#               Bm
Para recorrer tranquila, sígueme a mí tranquila
Bm                F#     F#                   Bm
Deja de correr, tranquila, no se terminarán tus vidas

[Final]
Tum Tum Tum            G   Bm
Para recorrer... tranquila


Riff

E |----2-----2-2320----0-2---0-2---0-2-33-3332---2----------------
B |0-3---0-3--------32-----2-------------------3------------------
G |---------------------------------------------------------------
D |-----------------------------4---------------------------------
A |---------------------------------------------------------------
E |---------------------------------------------------------------
   | Bm  | Bm  | Bm  | F#  | F#  | F#  | F#  | Bm  |

Lick 1
E |----2-----0-----0-----2-----2-----0-----0-----2----------------
B |0-3-----2-----2---0-3---0-3-----2-----2---0-3------------------
G |------3-----3-----------------3-----3--------------------------
D |---------------------------------------------------------------
A |---------------------------------------------------------------
E |---------------------------------------------------------------
   | Bm  | F#  | F#  | Bm  | Bm  | F#  | F#  | Bm  |

Lick 2
E |--2-8---2-0---2-0---3-2---3-2---2-0---0-2---3-2----------------
B |0-----------------0-----0-----------------0--------------------
G |------3-----3-----------------3-----3--------------------------
D |---------------------------------------------------------------
A |---------------------------------------------------------------
E |---------------------------------------------------------------
   | Bm  | F#  | F#  | Bm  | Bm  | F#  | F#  | Bm  |

Lick 3
E |--3-2---2-0---2-0---3-2---2-8---2-0---0-2---3-2----------------
B |0-----------------0-----0-----------------0--------------------
G |------3-----3-----------------3-----3--------------------------
D |---------------------------------------------------------------
A |---------------------------------------------------------------
E |---------------------------------------------------------------
   | Bm  | F#  | F#  | Bm  | Bm  | F#  | F#  | Bm  |
Suggest correction
Give kudos to tab author, rate the tab!
1 2 3 4 5
comments
print report bad tab
guest
You may want to rate the tab now too:
select rating
Wanna post a correction for this tab? Suggest correction