Oops, an error
Loading. Please wait.

Esclavo Y Amo Tab

version 4
version 4

Whole song

58 views 1 this week
no commentswrite comment
1 2 3 4 5
3 more votes to show rating
add to favorites
×
Save as Personal and add changes to this tab that will be seen only by you. Learn more ›
×
You can save this tab as Personal to edit and correct it or add notes. All changes will be seen only by you. Learn more »
save as personal
new!
launch autoscroll
font size
0
reset
how to read this tab
guitar tuner
Autoscroll
slow
fast
+/-
esc
set tempo
stop
Intro

e-0-5-7/5/4-5----------------------------------
B-------------5-6-8-10/8/7-8-3-5-6-8/6/5-6-1-3-
G----------------------------------------------
D----------------------------------------------
A----------------------------------------------
E----------------------------------------------

e-0-0-0-1-0--0-1-3--7-5----5-4-1-0-
B-----------3-----------8-6--------
G----------------------------------
D----------------------------------
A----------------------------------
E----------------------------------


e---------------------------------
B---------------------------------
G---------------------------------
D-------0-1-1-0-----0-1-----------
A---3-3---------3-3---------------
E-3-------------------------------


   Am
No se que tienen tus ojos
                   G
No se que tiene tu voca
                 F
Que domina mis antojos
                     E7
y a mi sangre vuelve loca


   Am
No se como fuy a quererte
                  G
Ni como te fuy adorando
                    F
Me siento morir mil veces
                    E7
Cuando no te estoy amando


Dm
De noche cuando me acuesto
  Am      E7       Am
A dios le pido olvidarte
                 G
Y al amanecer despierto
    F            E7
Tan solo para adorarte


Dm
Que infuencia tienen tus labios
    Am     E7       Am
Que cuando me besas timeblo
                        G
Y haces que me sienta esclavo
  F          E7
Y amo del universo


Solo: (Va con acompañamiento  Am G F E7 )


e---8-8-8-8--8--10-11-8---8----8-8--10-11-8-10-
B-8----------------------8---------------------
G----------------------------------------------
D----------------------------------------------
A----------------------------------------------
E----------------------------------------------


e-----------------8--10-----8--------------8-8--------
B-11----11-11--11--------11----9--9-9-9-9------11---8-
G----10-----------------------------------------------
D-----------------------------------------------------
A-----------------------------------------------------
E-----------------------------------------------------


Dm
De noche cuando me acuesto
  Am      E7       Am
A dios le pido olvidarte
                 G
Y al amanecer despierto
    F            E7
Tan solo para adorarte


Dm
Que infuencia tienen tus labios
    Am     E7       Am
Que cuando me besas timeblo
                        G
Y haces que me sienta esclavo
  F [Pausa]   Termina en Am Am
Y amo del universo
Suggest correction
Give kudos to tab author, rate the tab!
1 2 3 4 5
comments
print report bad tab
guest
Wanna post a correction for this tab? Suggest correction