Oops, an error
Loading. Please wait.

Me Recordarás Tab

29 views 1 this week
no commentswrite comment
1 2 3 4 5
3 more votes to show rating
add to favorites
×
Save as Personal and add changes to this tab that will be seen only by you. Learn more ›
×
You can save this tab as Personal to edit and correct it or add notes. All changes will be seen only by you. Learn more »
save as personal
new!
launch autoscroll
font size
0
reset
how to read this tab
guitar tuner
Autoscroll
slow
fast
+/-
esc
set tempo
stop
De éste álbum del Maestro Solís, del que también se
desprenden rolotas como Las Rejas No Matan, Una
Limosna, Espumas y Amigo Organillero... solo
colaboro con el Intro para adornar este buen bolero
ranchero.

e|--8--7--5--8--5--|--8--7--5--8--5--8--5--7-----|
B|-----------------|--------------------------8--|
G|-----------------|-----------------------------|
D|-----------------|-----------------------------|
A|-----------------|-----------------------------|
E|-----------------|-----------------------------|


e|--7--5-----7-----7-----5-----|
B|--------8-----8-----8-----6--|
G|-----------------------------|
D|-----------------------------|
A|-----------------------------|
E|-----------------------------|

e|-----------5--10--8--7--5--|
B|--5--6--8------------------|
G|---------------------------|
D|---------------------------|
A|---------------------------|
E|---------------------------|

e|-----------------------------------------------|
B|--7--9--10,--9--10--12,--7--9--10,--9--10--12--|
G|-----------------------------------------------|
D|-----------------------------------------------|
A|-----------------------------------------------|
E|-----------------------------------------------|
¿Dudas? ¿Chismes? ¿Chistes? ¿Comentarios? ¿Sugerencias?
Arribita esta mi Usuario. Salu2.
Suggest correction
Give kudos to tab author, rate the tab!
1 2 3 4 5
comments
print report bad tab
guest
Wanna post a correction for this tab? Suggest correction