Oops, an error
Loading. Please wait.

Amor Quédate Tab

1,004 views 9 this week
no commentswrite comment
1 2 3 4 5
3 more votes to show rating
add to favorites
×
Save as Personal and add changes to this tab that will be seen only by you. Learn more ›
×
You can save this tab as Personal to edit and correct it or add notes. All changes will be seen only by you. Learn more »
save as personal
new!
launch autoscroll
font size
0
reset
how to read this tab
guitar tuner
Autoscroll
slow
fast
+/-
esc
set tempo
stop
Bueno, este es mi primera trancripcion y... espero q les guste

INTRO

E------------------------------------------------
B-7--4--7/9--7--7--7--7--5--4--2/4---------------
G----------------------------------8/9--6/8--4/6-
D------------------------------------------------
A------------------------------------------------
E------------------------------------------------

E------------------------------------------------
B------------------------------------------------
G-3/4--------------------------------------------
D-----4--4/6--4--2--1----------------------------
A---------------------4/6--4--2--4--4/6--2-------
E------------------------------------------------

     B
No quiero que te vayas
 F#
Aun la noche es larga
        E
Cada momento nuestro
Quisiera detenerlo
         F#
En esta cama

     B
Que larga son las horas
    F#
Cuando tu te demoras
 E
Me vuelvo loco
             F#
Esperarte me mata

           B   F#     G#m
Amor quedateeeeee, quedate
                  E
Quiero mas de tus besos
           B
Necesito tu cuerpo
           C#m             E
Hazme el amor matame de placer

         B   F#     G#m
Amor quedateeeeee, quedate
         C#m
Desearte asi es un vicio
   E                 F#
Del cual nunca me curare
      G       A
Amor quedate

(Se repiten los mismos acordes)
De ganas yo me enfermo
Cuando tu amor no tengo
Hasta escuchar tus pasos
Y verte entre mis brazos
Me siento preso

Que larga son las horas
Cuando tu te demoras
Me vuelvo loco
Esperarte me mata

Amor quedate quedate
Quiero mas de tus besos
Necesito tu cuerpo
Hazme el amor matame de placer
Amor quedate quedate
Desearte asi es un vicio
Del cual nunca me curare

                E
Soy adicto a tu boca
A como me provocas
             F#7
A tus ojos de cielo
A tu risa y tu pelo
              D#
A tu forma de ser
             G#
Adicto a tu querer

(Sube un tono)
          C#   G#      A#m
Amor quedateeeeee, quedate
                   F#
Quiero mas de tus besos
             C#
Necesito tu cuerpo
          D#m              F#
Hazme el amor matame de placer

          C#  G#        A#
Amor quedateeeeee, quedate
          D#m
Desearte asi es un vicio
   F#              G#
Del cual nunca me curare
Amor quedate
Suggest correction
Give kudos to tab author, rate the tab!
1 2 3 4 5
comments
print report bad tab
guest
Wanna post a correction for this tab? Suggest correction