Oops, an error
Loading. Please wait.

Si No Estuvieras Aquí Chords

7 views 1 this week
no commentswrite comment
1 2 3 4 5
3 more votes to show rating
add to favorites
launch autoscroll
font size
0
reset
transpose
0
reset
simplify chords
display chords
guitar tuner
×
Best way to learn
"Si No Estuvieras Aquí"
Autoscroll
slow
fast
+/-
esc
set tempo
stop
Intro: 
*C - G - Am - Am/G - F - C - F - Fm

* C - G - Am - Am/G - F - C - F - Fm
e|-------10-8-7-7-8-------------------------------------------------|
B|-7/8..---------------------8-8-10-----8/10-8.---------------------|
G|------------------9..-9-10-----------------------7-9-9-10-7----7.-|
D|----------------------------------10.---------10------------10----|
A|------------------------------------------------------------------|
E|------------------------------------------------------------------|

C      G      Am      Am/G              F
   Ha pasado el tiempo y me doy cuenta por fin
        A      Dm            G
lo que sería mi vida sin ti
              C       G     Am     D
a quién daría mis mejores canciones
            G
si no fuera a ti.
C      G      Am      Am/G              F
Vienen a mi mente muchos recuerdos
        A      Dm               G
que sin querer te traen a mi
              C       G     Am           D
y sin poder apartar me encierro en llanto
            G
en un llanto feliz.

Coro
          C            G                Am          Am/G
Si no estuvieras aquí no sería lo mismo vivir
           D                            G
no sería lo mismo escribir tantas canciones.
          C            G                Am          Am/G
Si no estuvieras aquí no sería lo mismo vivir
           D                          G        F - Fm
no sería lo mismo sentir tantas emociones.

C      G      Am      Am/G        F
No sé por qué cuando me miras así
        A      Dm            G
presiento que no podré fingir
               C    G   Am     D
este tremendo amor que no comprendo
            G
que nunca antes sentí.

Coro
          C              G           Am            Am/G
Si no estuvieras aquí no sería lo mismo vivir
            D                            G
no sería lo mismo escribir tantas canciones.
          C              G           Am            Am/G
Si no estuvieras aquí no sería lo mismo vivir
            D                            G
no sería lo mismo sentir tantas emociones.

          C              G           Am            Am/G
Si no estuvieras aquí no sería lo mismo vivir
            D                            G
no sería lo mismo escribir tantas canciones.
          C              G   Am  Am/G
Si no estuvieras aquí.. ooh... ooh
            D                                G        F - Fm
no sería lo mismo sentir tantas emociones.

Final
*C - G - Am - Am/G - F - C - Dm - G
e|-------10-8-7-7-8------------------------------------------------
B|-7/8..---------------------8-8-10-----8/10-8.--------------------
G|------------------9..-9-10-----------------------7-9-9.-10-9-7.--
D|----------------------------------10.---------10-----------------
A|-----------------------------------------------------------------
E|-----------------------------------------------------------------

e|--------------------11/12-15-11------------------|
B|-------13-15----13.-------------15-13------------|
G|-13/14-------14-----------------------12/14-12..-|
D|-------------------------------------------------|
A|-------------------------------------------------|
E|-------------------------------------------------|


 ·=========================·
 |   ;)  ¤«L·u·K·?  :)   |
 | luis_reque@  |
 ·=========================·
Suggest correction
Give kudos to tab author, rate the tab!
1 2 3 4 5
comments
print report bad tab
guest
You may want to rate the tab now too:
select rating
Wanna post a correction for this tab? Suggest correction