Oops, an error
Loading. Please wait.

El Dolor De Tu Presencia Chords

version 2
version 2

Whole song

10 views 1 this week
no commentswrite comment
1 2 3 4 5
3 more votes to show rating
add to favorites
launch autoscroll
font size
0
reset
transpose
0
reset
simplify chords
display chords
guitar tuner
×
Best way to learn
"El Dolor De Tu Presencia"
Autoscroll
slow
fast
+/-
esc
set tempo
stop
G
e|-7--7-8-10--7-10-7/9-9-10-12---------8-10-11-10-8-5/7-
B|-8---------------------------------8------------------
G|-7---------------------------5-7-8--------------------
D|-9----------------------------------------------------
A|-10---------------------------------------------------
E|------------------------------------------------------

e|-----7/8-7-------------
B|---8-------8-----------
G|-7-----------7--5--2/4-
D|-----------------------
A|-----------------------
E|-----------------------

   G           A
No se porque pienso en ti
  Cm                      G             G D/F#
Cuando yo se que es imposible convivir
         Em                              Bm
Porque tu amor lo has compartido con las dos
         C                        G
Ella es mi gran amiga y tu una ilusión
 D/F# Em     D        C   D
No, no, no puede ser amor

CORO:
    G                          Am7
El dolor de tu presencia no me deja ya vivir
 C                           G
Te has convertido en una angustia para mí
    G                             Am7
El dolor de tu presencia me ha dañado el corazón
    C               G
Has dividido dos amigas por amor
D/F# Em   D         C
Y yo no quiero más dolor
    D         G       C
Me duele tu presencia
                   G      C Cm
El dolor de tu presencia

   G           A
Déjame ya olvídame
  Cm                      G             G D/F#
Si de verdad me quieres tienes que entender
         Em                      Bm
Yo jamás podría hacerle una traición
         C                        G
Ella es mi gran amiga y tu una ilusión
 D/F# Em     D        C   D
No, no, no puede ser amor

CORO

    D         G       C
Me duele tu presencia
                   G      C
El dolor de tu presencia

                   G      C
Me duele tu presencia
Suggest correction
Give kudos to tab author, rate the tab!
1 2 3 4 5
comments
print report bad tab
guest
You may want to rate the tab now too:
select rating
Wanna post a correction for this tab? Suggest correction