Oops, an error
Loading. Please wait.

Verde Más Allá Chords

version 4
version 4

Whole song

191 views 6 this week
no commentswrite comment
1 2 3 4 5
3 more votes to show rating
add to favorites
launch autoscroll
font size
0
reset
transpose
0
reset
simplify chords
display chords
guitar tuner
×
Best way to learn
"Verde Más Allá"
Autoscroll
slow
fast
+/-
esc
set tempo
stop
Intro: A Bm x9

E --------------5-------|-------------|-------5-------------
B -55-55-55-5-5---------|5-5-55-------|-5-5-5-------------5-
G ----------------7-----|-------7-----|---------7------56---
D -----------------77-7-|--------77-7-|----------7-77-------
A ----------------------|-------------|---------------------
E ----------------------|-------------|---------------------

               A         Bm
A ella no le gusta trabajar
            A          Bm
lo que le gusta es bailar,
                A            Bm
moviendo las caderas siempre va
          A    Bm
con su caguama.
               A                  Bm
Y cuando se decide a entrar a un bar
                  A          Bm
perfumes, Buenos Aires, volarán,
                 A               Bm
no te imaginas la que se va a armar
         A    Bm
bajo su falda.

F#m         Bm
Y yo que estoy
              C#7
ciega por el sol
               Bm
guiada por la luna
          A
escapándome.

F#m         Bm
No te hice mal
              C#7
me fui sin pelear
                Bm
y ahora estoy riendo
             A  E
verde más allá.

---Intro---

               A        Bm
A ella no le gusta trabajar
             A         Bm
lo que le gusta es bailar,
                 A           Bm
moviendo las caderas siempre va
          A   Bm
con su caguama.

               A                  Bm
Y cuando se decide a entrar a un bar
                  A          Bm
perfumes, Buenos Aires, volarán,
               A                 Bm
no te imaginas la que se va a armar
          A   Bm
bajo su falda.

F#m         Bm
Y yo que estoy
             C#7
ciega por el sol
               Bm
guiada por la luna
        A
escapándome.

F#m         Bm
No te hice mal
              C#7
me fui sin pelear
                 Bm
y ahora estoy riendo
            A  E
verde más allá.

Solo:  A D E [----- Se repiten todo el solo.

E -99--5-797--99----5-7/9-7---55-57-7/9-7-5-7--55---9-7-5----------
B ---57---------5-7-------------------------------5-------7--------
G -----------------------------------------------------------------   X2
D -----------------------------------------------------------------
A -----------------------------------------------------------------
E -----------------------------------------------------------------

                A      D    E
A ella no le gusta, trabajar.
             A       D  E
No, no le gusta, trabajar.
             A          D  E
A ella no le gusta, trabajar.
                A  D  E
No le gusta trabajar.  [2]

A D E [----- Se repite.

Final:
    A   D   E   EEEEEEEEE           AAAAAAAA
E --0---2---0---000000000-----------00000000--------------------
B --2---3---0---000000000-----------22222222--------------------
G --2---2---1---111111111-----------22222222--------------------
D --2---0---2---222222222---2-1-0---22222222--------------------
A --0---0---2---222222222---4-3-2---00000000--------------------
E --0-------0---000000000-----------00000000--------------------
Suggest correction
Give kudos to tab author, rate the tab!
1 2 3 4 5
comments
print report bad tab
guest
You may want to rate the tab now too:
select rating
Wanna post a correction for this tab? Suggest correction