Oops, an error
Loading. Please wait.

Ni Un Día Más Tab

by Jerau
1 view 1 this week
no commentswrite comment
1 2 3 4 5
3 more votes to show rating
add to favorites
launch autoscroll
font size
0
reset
how to read this tab
guitar tuner
×
Best way to learn
"Ni Un Día Más"
Autoscroll
slow
fast
+/-
esc
set tempo
stop
AQUI les va el intro de la canción es muy facil.
Si hay algun error me lo envian Index9@ .

e---11-11-11-11-9-9-7-7-12-11-9------------------------------------
B------------------------------------11-12-14-14-16-14-13----------
G-------------------------------11---------------15-------13h14-14-
D------------------------------------------------------------------
A------------------------------------------------------------------
E-------------------------------------------------------

e------------------------------------------------------------------
B------14-16-16s17-16-14---12h14-11----12-12-11-12-----------------
G---13------------------------------11-------11--------------------
D------------------------------------------------------------------
A------------------------------------------------------------------
E-------------------------------------------------------
Suggest correction
Give kudos to tab author, rate the tab!
1 2 3 4 5
comments
print report bad tab
guest
You may want to rate the tab now too:
select rating
Wanna post a correction for this tab? Suggest correction