Oops, an error
Loading. Please wait.

Tu Chords

version 4
version 4

Whole song

14 views 1 this week
no commentswrite comment
1 2 3 4 5
3 more votes to show rating
add to favorites
×
Save as Personal and add changes to this tab that will be seen only by you. Learn more ›
×
You can save this tab as Personal to edit and correct it or add notes. All changes will be seen only by you. Learn more »
save as personal
new!
launch autoscroll
font size
0
reset
transpose
0
reset
simplify chords
display chords
guitar tuner
Autoscroll
slow
fast
+/-
esc
set tempo
stop
Strumming
There is no strumming pattern for this song yet. and get +5 IQ
buenoO aki les dejoO humildemente mi apreciación
esperando k sean uds kienes juzguen la mejor opcion..

kiero mandarle un saludote a una personita unik y especial
para mi... y x kien conoci esta cancion... VA X TI KLAUZ...


G
Tú que sigues sin llegar

Que estás al otro lado de este mar
          Em                    D
De gente que camina sin mirar


G
Tu que sabes que estoy yo

contigo en esta desesperación,
           Em               D
porque seguimos separados


C
Tu a quien yo llamo tu,
       Am
esa mujer que no conozco aún,
              G   Em   D    Dsus
que tanto extraño Oh! Tu


C
Tu que escuchas mi canción,
              Am
que has entendido esta declaración,
           G     Em   D  Dsus
ven a mis brazos que yo
          Am
no quiero seguir así
          Em                       C              D
fingiendo que soy feliz cuando te busco en otros labios


        ---CORO---
                 G   B      Em      B
Porque has sido tu      el sueño
               C               D            G     D
del que me despierto en otras camas y no estas
                 G   B       Em      B
Porque has sido tu      el cuento
               C             D           G      B
de mil y una noches que no acaba de empezar,
             C          D         G
no serás mentira no me vayas a fallar


G
Tu que sueles dibujar

corazoncitos de felicidad
           Em                    D
por las esquinas de tu soledad


G
Tu que sabes mas de amor

que los poetas y mas que el licor
            Em               D
que exhalan los abandonados


C
Tu a quien llamo tu
       Am
esa mujer que guarda en su baúl
              G  Em  D    Dsus
mis buenos años Oh! Tu


C
Tu que escuchas mi canción,
             Am
que has entendido esta declaración,
             G  Em  D   Dsus
Da el otro paso amor
          Am
que yo no vivo sin ti
             Em
que quiero hacerte feliz
          C                  D
y me preocupa que no has llegado


---CORO---
                 G   B      Em      B
Porque has sido tu      el sueño
               C               D            G     D
del que me despierto en otras camas y no estas
                 G   B       Em      B
Porque has sido tu      el cuento
               C             D           G      B
de mil y una noches que no acaba de empezar,
             C          D         G
no serás mentira no me vayas a fallar


:::(SE K ALGUNOS SABEN MAS K OTROS..):::

  :::::::AKI LES DEJO LAS NOTAS::::::::


           G
E-----------3---------------
A--------------2------------
D--------------------------
G--------------------------
B--------------------------
e----------3----------------

            Em
E--------------------------
A------------2--------------
D-----------2---------------
G--------------------------
B--------------------------
e--------------------------

            D
E--------------------------
A--------------------------
D--------------------------
G------------2--------------
B-----------3---------------
e----------2----------------

           Dsus
E--------------------------
A--------------------------
D--------------------------
G------------2--------------
B-----------3---------------
e--------------------------

            C
E--------------------------
A------------2--------------
D-----------2---------------
G--------------------------
B------1--------------------
e--------------------------

            Am
E--------------------------
A--------------------------
D------2--------------------
G-----2---------------------
B--1------------------------
e--------------------------

           B
E---2-----------------------
A---2-----------------------
D---2------4-----------------
G---2------4-----------------
B---2------4-----------------
e---2-----------------------


*****************************************************************
Bueno esperoO haya sido de su agradoO..
solo me falto ponerle los arreglos del INTRO
y otro k lleva antes de entrar a 1ra estrofa
después del 1er coroO?. xD!!
Suggest correction
Give kudos to tab author, rate the tab!
1 2 3 4 5
comments
print report bad tab
guest
Wanna post a correction for this tab? Suggest correction