Oops, an error
Loading. Please wait.

Diablos Blancos Bass

19 views 1 this week
no commentswrite comment
1 2 3 4 5
3 more votes to show rating
add to favorites
launch autoscroll
font size
0
reset
guitar tuner
×
Best way to learn
"Diablos Blancos"
Autoscroll
slow
fast
+/-
esc
set tempo
stop
Introducción:
G ---------------------------------- |
D ---------------------------------- |
A ---------------------9-10-9-10- |
E 9-10-11--9-10-11------------- | X16

Riff I:
G -----------------------------------	|
D -----------------------------------	|
A ----------------------9-10-9-10-	|
E 9-10-11--9-10-11--------------	| X16

Riff II:
G -------------------------------	|
D -------------------------------	|
A ---------9-10-9-10----------	|
E 9-12-9--------------9-10-9-	| X4
Primera parte del canto, 'Comienza el pacto que traerá dolor...':
G --------------------------------
D --------------------------------
A --------------------------------
E 777-777-777-999-999-999-
Suggest correction
Give kudos to tab author, rate the tab!
1 2 3 4 5
comments
print report bad tab
guest
You may want to rate the tab now too:
select rating
Wanna post a correction for this tab? Suggest correction