Oops, an error
Loading. Please wait.

Contigo Tab

32 views 3 this week
no commentswrite comment
1 2 3 4 5
3 more votes to show rating
add to favorites
launch autoscroll
font size
0
reset
how to read this tab
guitar tuner
Autoscroll
slow
fast
+/-
esc
set tempo
stop
Help us to improve Ultimate-Guitar.com Take our survey!
×
Aqui pueden checar la version q toco

Mi pagina en face:

Saludos.


Intro ::::::::


     G                                 G/F#       Em
E||--------------------------|------------------------|
B||--------3-----3--1--0-----|----------------0-------|
G||-----0-----0-----------2--|-------0--2---------0---|
D||--------------------------|-----0------------------|
A||--------------------------|------------------------|
E||--3-----------3--3-----3--|-------3--2----2----0---|


E||--------------------------|-----------------------|
B||--------------3--1--0-----|---------------0-------|
G||--------0--------------2--|-------0--2------------|
D||-----2-----2--------------|-----------------------|
A||--------------------------|-----------------------|
E||--------------0--0-----0--|-------0--0----0-------|

     C            C/B           Am                 D
E||---------------------------|--------3--3-----------|
B||--0---1--0-----------3--1--|-----------------------|
G||------------0-----0--------|-----0-----------------|
D||---------------------------|--------------------0--|
A||--3------------2-----------|--0--------------------|
E||---------------------------|-----------------------|

E||-----3-------2----------|--------------------------|
B||-----3-------3-------3--|--1--0--------------------|
G||--2-------2-------2-----|--------2--0--------------|
D||-----0-------0----------|--------------4--2--0-----|
A||------------------------|--------------------------|
E||------------------------|-----------------------3--|

ESTROFAS::::::

G            G/F#    Em
Quiero comer nachos contigo
                E/D    C
Cuando vaya al cine contigo
C/B       Am         D
Comprar boletos para dos
Cada domingo

G                  G/F#    Em
Quiero aprender francés contigo
                  E/D    C
Cuando vaya a Francia contigo
C/B       Am
Para decir Je t'aime
D
Cerquita de tu oído

SUBCORO::::::::

Em                     Bm
Quiero flotar junto de ti
                    C
Y saber que vas a venir
C/B          Am
Por tu perfume en el viento
D
Que me despeina por dentro

CORO::::::::

G               G/F#    Em
Quiero reír y jugar contigo
                     E/D     C
Robar tu aliento y taparte el frio
C/B         Am            D
Ser tu villano y tu príncipe y tu amigo

G               G/F#    Em
Quiero dormir y soñar contigo
                   E/D     C
Llegar a un trato solo contigo
C/B        Am           D
  Quedarme con tu corazón
                   C        D        G
Y que mi corazón este también contigo

INTRO:::::::::

ESTROFAS::::::::

G                 G/F#    Em
Quiero envolver regalos contigo
                     E/D     C
En navidad cuando este contigo
C/B       Am              D
Buscar mi nombre en tu tarjeta
Bajo el pino

G                 G/F#    Em
Quiero mojarme junto contigo
                  E/D   C
Buscar un sitio seco contigo
C/B         Am           D
Cuando la lluvia nos sorprenda en el camino


SUBCORO::::::::

Em                     Bm
Quiero flotar junto de ti
                    C
Y saber que vas a venir
C/B          Am
Por tu perfume en el viento
D
Que me despeina por dentro

CORO::::::::

G               G/F#    Em
Quiero reír y jugar contigo
                     E/D     C
Robar tu aliento y taparte el frio
C/B         Am            D
Ser tu villano y tu príncipe y tu amigo

G               G/F#    Em
Quiero dormir y soñar contigo
                   E/D     C
Llegar a un trato solo contigo
C/B        Am           D
  Quedarme con tu corazón
                   C        D        G
Y que mi corazón este también contigo


FIN:::::::


Acordes:

  G    D/F# Em   E/D     C    C/B  Am   D       Bm

--3----0----0----0----|--0----0----0----2----|--2--||
--3----3----0----0----|--1----3----1----3----|--3--||
--0----2----0----0----|--0----0----2----2----|--4--||
--0----0----2----0----|--2----0----2----0----|--4--||
--2----0----2---------|--3----2----0---------|--2--||
--3----2----0---------|----------------------|-----||
Suggest correction
Give kudos to tab author, rate the tab!
1 2 3 4 5
comments
print report bad tab
guest
You may want to rate the tab now too:
select rating
Wanna post a correction for this tab? Suggest correction