Oops, an error
Loading. Please wait.

A Sus Pies Bass Tab

version 1
version 1

Whole song

Interactive

49 views 1 this week
no commentswrite comment
1 2 3 4 5
3 more votes to show rating
add to favorites
launch autoscroll
font size
0
reset
guitar tuner
Autoscroll
slow
fast
+/-
esc
set tempo
stop
Help us to improve Ultimate-Guitar.com Take our survey!
×
       
          A sus Pies; es una de las adoraciones que si lo logra
escuchar el corazón, es capaz de atravezar lo mas profundo de 
nuestro ser.  Esta adoracion esta muy bella, ojala lo vean como yo.


::Intro::

::Verso::

::Pre-Coro::

E |--5---4----4--4---3---2---1---0-------0--0-----0---------
A |----------------------------------2---------2------------
D |---------------------------------------------------------
G |---------------------------------------------------------
B |---------------------------------------------------------


E |--5----4----4--4---3----2---1---0----------0---0-------0----
A |---------------------------------------2-----------2--------
D |-----------------------------------2------------------------
G |------------------------------------------------------------
B |------------------------------------------------------------


::Coro::

E |--5---5-----------4----4--5--------5---1-----------------------
A |---------5-----5---------------------------------3----5--------
D |------------7------------------7-------------3-----------------
G |---------------------------------------------------------------
B |---------------------------------------------------------------


E |----------0--0------0------------------------0-----1---0---5-----------0---
A |-2--------------2--------4----4--5----2------------------------5-3-2-------
D |-----2---------------------------------------------------------------------
G |---------------------------------------------------------------------------
B |---------------------------------------------------------------------------


::Versos 1 y 2::

E |--5----5--5---0----3--5--3----------------3-------1----1--1--------------5--
A |-------------------------------0---2---3-----3-----------------3s5---5------
D |----------------------------------------------------------------------------
G |----------------------------------------------------------------------------
B |----------------------------------------------------------------------------


E |----------------0---------------0--------0--------------
A |--2----2--2--------2-----------------2------------------
D |-----------------------0---2----------------------------
G |--------------------------------------------------------
B |--------------------------------------------------------


::Pre-Coro::

E |--5---4----4--4---3---2---1---0-------0--0-----0-------------
A |----------------------------------2---------2----------------
D |-------------------------------------------------------------
G |-------------------------------------------------------------
B |-------------------------------------------------------------


E |--5----4----4--4---3----2---1---0----------0---0-------0---
A |--------------------------------------2-----------2--------
D |----------------------------------------2------------------
G |-----------------------------------------------------------
B |-----------------------------------------------------------


::Coro::

E |--5---5-----------4----4--5--------5---1-------------------
A |---------5-----5---------------------------------3----5----
D |------------7------------------7-------------3-------------
G |-----------------------------------------------------------
B |-----------------------------------------------------------


E |----------0--0------0------------------------0-----1---0---5-----------0-
A |-2--------------2--------4----4--5----2------------------------5-3-2-----
D |-----2-------------------------------------------------------------------
G |-------------------------------------------------------------------------
B |-------------------------------------------------------------------------


::Puente::

E |---5----3---0--0--0---6-------6----------------6-----------------------2---2--
A |---------------------------8-------6----3--3-----------------6----3-----------
D |-----------------------------------------------------4---4--------------------
G |------------------------------------------------------------------------------
B |------------------------------------------------------------------------------


::Final::

E |------------------------------------0---------5-------------------
A |---------------5---------2----------------------------------------
D |-----3------------------------------------------------------------
G |------------------------------------------------------------------
B |------------------------------------------------------------------


    Comentarios, dudas y aclaraciones; solo escríbanme... OK.

    G O D  B L E S S  Y O U  ! ! !
Suggest correction
Give kudos to tab author, rate the tab!
1 2 3 4 5
comments
print report bad tab
guest
You may want to rate the tab now too:
select rating
Wanna post a correction for this tab? Suggest correction