Oops, an error
Loading. Please wait.
76 views 1 this week
no commentswrite comment
1 2 3 4 5
3 more votes to show rating
add to favorites
launch autoscroll
font size
0
reset
how to read this tab
guitar tuner
×
Best way to learn
"Abba Padre"
Autoscroll
slow
fast
+/-
esc
set tempo
stop
Esto es lo que hace la quitarra, en la cancion


Cm7(add4)                  Gm9
    Quiero estar en tu presencia

E||-------------------------|
A||-------------------------|
D||-------------------------|
G||-------------------------|
B||-8-10---10----------8-8--|
E||------8----7-8-9-10------|

Cm7(add4)             Gm9
  Disfrutar de tu amistad

E||----------------------------------|
A||----------------------------------|
D||----------------------------------|
G||----------------------------------|
B||----------------------------------|
E||-13-13--11-11-11--10-10-10v8-8-8--|

F2                   Gm9
Quiero encontrar deleite

E||--------------------------------------|
A||--------------------------------------|
D||-----------------------------12-11-11-|
G||--------------------------10----------|
B||--------11-10-8---11-10-8-------------|
E||-8s10-8---------8---------------------|

A7                 D   D+7(#9)
 Quiero conocerte mas            (LUEGO VIENE EL SOLO DEL PIANO)


Estos son los acordes:

Cm7(add4)       Gm9         F2      D+7(#9)

 E||---       E||-3-     E||---     E||---
 A||-3-       A||---     A||---     A||---
 D||-5-       D||-3-     D||-1-     D||---
 G||-3-       G||-3-     G||-3-     G||-3-
 B||-4-       B||-3-     B||-2-     B||-1-
 E||-3-       E||---     E||-3-     E||-2-

QUE DIOS LES BENDIGA GRANDEMENTE

Hecho por:Christian Yumbato
Suggest correction
Give kudos to tab author, rate the tab!
1 2 3 4 5
comments
print report bad tab
guest
You may want to rate the tab now too:
select rating
Wanna post a correction for this tab? Suggest correction