Oops, an error
Loading. Please wait.

Abba Padre Bass Tab

95 views 1 this week
no commentswrite comment
1 2 3 4 5
3 more votes to show rating
add to favorites
launch autoscroll
font size
0
reset
guitar tuner
×
Best way to learn
"Abba Padre"
Autoscroll
slow
fast
+/-
esc
set tempo
stop
esta es la tabletura de bajo de abba padre
 Pelagio espero que le sea de vedicion.
saludos para la Iglesia LUZ ADMIRABLE en Wiston salem NC.

esta es la intro es igual que el coro
    Gm                           D7
E--3-3---3-3-3----------------------------------------
A---------------3s---12-------------------------------
D------------------------10-11-12-12-12-12------------
G-----------------------------------------------------
   Gm        Cm                  Gm   Bb     Eb
E-3-3-----3-5------5-5-3-0-1-2-3---7----6----------------
A-----1-3------6-5-------------------------7---6---------
D-------------------------------------------------------
G--------------------------------------------------------
  A7                  Gm        Cm          D7
E-5--3--2-2-3----3--3-3-------3---------5--------5------
A------------5-5--------3---3--3-3S----5-3-4-5----3-4-5-
D-------------------------------------------------------
G-------------------------------------------------------

E-5------5----------------------------------------------
A--3-4-5--3-4-5--5-5------------------------------------
D-------------------------------------------------------
G-------------------------------------------------------
luego va el coro......

me puedo acercar a ti.....
  Gm             D7          A7
E-3------------------------5----3------------3--
A---------1-----3----1-----------------5--------(2x)

tu rostro puedo.................
   Gm            D7           Gm
E-3-----------------1---2---3
A--------1------3------------

es que me amas............
  Gm      Cm             D7
E-3-3-------3--------/---5-------5--------
A------3--3---3--3S--/-5--3-4-5----3-4-5--

la segunda parte lo repite igualito que el final del coro
lo demas es  repeticion.

Eres fiel......

quiero estar en tu presencia.....
   Cm                Gm7        gm7
B--1-----------1-------------------------------
E-----3-----3-------3----------------3---------
A--------5-------------3H--5-----5-------------
D---------------------------5---------------(2X)

quiero en ti.....
  F             Gm             A7                   D9
E-1-----------1-3----------3--5--------5-----------------
A----3------3---- 5----5------- 7----7---7S-----3-5-5-5-5
D--------5----------5-------------7------------------

SOLO PIANO LUEGO ENTRA EL BAJO I HACE ESTO
    F              D7
E---13-13S--5-----------------------------
A----------------------5---9-----5-7-5-3--
D--------------------7-------7-5----------
G------------------7-----8----------------
   Eb       Gm     Bb              Eb       Gm
E---------5--3--------------7----------5---3-------
A--6--5----------1--3----1-------6--5----------1---3
  Bb      Eb        Gm
E-----7----------5--3------------
A-1-------6--5-----------1--3-3-3
  Gm       D7         Gm         Cm
E-3------------5------3-------------------
A----6-----5--------------1------3---1---
   Gm       A7         Gm
B-----------------------------1--------
E--3--------5---------3-3--------------
A-----6---------5--5------3------------
           D7
A--5S-12---------------------
D--------10-11-12-12--12-12v-

luego el coro se repite varias veces esto es el final
E---5------5-------5-------5-------5--------5-------
A-5--3-4-5---3-4-5---3-4-5---3-4-5----3-4-5----3-4-5
D---------------------------------------------------
G---------------------------------------------------
                    D7                Gm
B-------------------------------------3-3----
E--5--------------------------------------3-3
A-----3-4-5S---12----------------------------
D----------------10-11-12S-14V---------------
G--------------------------------------------
Suggest correction
Give kudos to tab author, rate the tab!
1 2 3 4 5
comments
print report bad tab
guest
You may want to rate the tab now too:
select rating
Wanna post a correction for this tab? Suggest correction