Oops, an error
Loading. Please wait.

Algo Más Tab

41 views 1 this week
no commentswrite comment
1 2 3 4 5
3 more votes to show rating
add to favorites
launch autoscroll
font size
0
reset
how to read this tab
guitar tuner
Autoscroll
slow
fast
+/-
esc
set tempo
stop
Help us to improve Ultimate-Guitar.com Take our survey!
×
hola que Dios les bendiga este
es mi primer post con tablaturas espero y les sirva
para los acordes se usa un capo en el segundo
traste, aquí no,en este caso es la guitarra normal...

entran las dos guitarras en el intro al mismo tiempo, la guitarra 1 entra en
F y Bbmaj7 cada uno en 4/4 y la guitarra 2 hace lo siguiente:

INTRO:
guitarra 1: //F, Bbmaj7//

guitarra 2:
e ----------------------------------------------
B ----------------------3-5-3-5-3-5-------------
G --2-4-2-4-2-4-2-4-4-2-------------------------
D ----------------------------------------------
A ----------------------------------------------
E ----------------------------------------------

e ----------------------------------------------
B ------------------------------3-5-3-5-3-5-----
G ----------2-4-2-4-2-4-2-4-4-2-----------------
D ------2-4-------------------------------------
A --2-4-----------------------------------------
E ----------------------------------------------
      F                            Bbmaj7
Algo más me dice el corazón hay algo más
     F                            Bbmaj7
Algo mas escucho en el silencio hay algo más
      Dm                     Dm/C          G/B
Algo más por conocer cada momento y disfrutar
      Bbmaj7                            C6sus  C6
Algo más que llevara mi vida a otro lugar

e -------------------------------------------------------
B -------------------------------------------3-5---------
G -----2-4-----------------------------------------------
D -------------------------------------------------------
     F                                Bbmaj7
Algo mas          oí en un sueño hay algo más

e -------------------------------------------------------
B ----------------------------------------------3-5------
G -----2-4-----------------------------------------------
D -------------------------------------------------------
     F                                     Bbmaj7
Algo más        escucho en la mañana al despertar

e ------3------------------------------------------3/5---
B -------------------------------5-----------------------
G -------------------------------------------------------
D -------------------------------------------------------
      Dm                     Dm/C              G/B
Algo más       me grita el corazón         al añorar


e -------------------------------------------------------
B --------------------------------------6---6---4/6------
G ----------------------------------------5---5----------
D -------------------------------------------------------
A -------------------------------------------------------
E--------------------------------------------------------
      Bbmaj7                            C6sus  C6
Algo más que llevara mi vida a otro lugar

Coro:
           F          Fsus
Quiero llegar a ese lugar
    F        C/E                C9/E  C/E
En el que escucho hay algo más
            Dm                       Bbmaj7
Donde se puede disfrutar de tu presencia sin dudar
          F          Fsus
Donde mis pensamientos son
   F        C/E         C9/E  C/E
Solo de ti de nadie más
     Dm                       Bbmaj7
Donde se pueden conectar momentos con la eternidad


e -------------------------------------------------------
B -----------------------------------3-5-3-5-3-5---------
G --------------2-4-2-4-2-4-2-4-4-2----------------------
D -------------------------------------------------------
A -------------------------------------------------------
E -------------------------------------------------------
             F                        Bbmaj7
Donde hay algo más
e -------------------------------------------------------
B -------------------------------------------------------
G ----------------2-4-2-4-2-4-2-4-4-2-0-2----------------
D ----------------------------------------2-4-2----------
A -------------------------------------------------------
E--------------------------------------------------------
            Dm                           Dm/C Bbmaj7
Donde hay algo más

e -------------------------------------------------------
B ---------------------------------------------3-5-------
G --------2-4--------------------------------------------
D -------------------------------------------------------

Algo más     me digo en el espejo hay algo más
e -------------------------------------------------------
B --------------------------------------------2-5--------
G ---------2-4----------------------------2-4------------
D -----2-4-----------------------------------------------

Algo más     escucho como un eco al descansar


e ------5----------------------------------5/7-----------
B -----------------------------7-------------------------
G -------------------------------------------------------
D -------------------------------------------------------

Algo más me dicen las estrellas el brillar


e ---------------------------------------------3/5-------
B -------------------------------------8---8-------------
G ---------------------------------------7---7-----------
D -------------------------------------------------------

Algo más que llevara mi vida a otro lugar

Coro:

//Quiero llegar a ese lugar
En el que escucho hay algo más
Donde se puede disfrutar de tu presencia sin dudar
Donde mis pensamientos son
Solo de ti  de nadie más
Donde se pueden conectar momentos con la eternidad//

e -----------------------------------------------------------
B -----------------------------------------------------------
G -------------2-4-2-4-2-4-2-4-4-2---2-4-2-4-2-4-2-4-2-0-2---
D -----------------------------------------------------------


Donde hay algo más
e -------------------------------------------------------
B -------------------------------------------------------
G ----------------2-4-2-4-2-4-2-4-4-2-0-2----------------
D ----------------------------------------2-4-2----------
A -------------------------------------------------------
E--------------------------------------------------------
Donde hay algo más

e -----------------------------------------------------------
B -----------------------------------------------------------
G -------------2-4-2-4-2-4-2-4-4-2---2-4-2-4-2-4-2-4-2-0-2---
D -----------------------------------------------------------


Donde hay algo más
e -------------------------------------------------------
B -------------------------------------------------------
G ----------------2-4-2-4-2-4-2-4-4-2-0-2----------------
D ----------------------------------------2-4-2----------
A -------------------------------------------------------
E--------------------------------------------------------
Donde hay algo más


espero y les sirva mucho, cualquier duda mándenla a mi correo
cuautla_2006@ saludos a Monte Sion, te amo Karen
Suggest correction
Give kudos to tab author, rate the tab!
1 2 3 4 5
comments
print report bad tab
guest
You may want to rate the tab now too:
select rating
Wanna post a correction for this tab? Suggest correction